Estero - Country Livin Chords & Tabs

 

Country Livin Chords & Tabs

Estero Chords & Tabs

Version: 2 Type: Bass Tab 0 ratings
1 star 2 stars 3 stars 4 stars 5 stars
comments

Country Livin Bass Tab

  BTAB: Country Livin
Artist: Estero
 Album: Unknown
Author: Rattman (jratt0@hotmail.com)


**Padrino's Bass Tab Exlusive!**

[ Tab from: http://www.guitartabs.cc/tabs/e/estero/country_livin_btab_ver_2.html ]
This is a great new group, thats just starting to get some radio play.
This song is pretty easy, its mostly very slow.

Verse/Chorus:

G---------------
D---------------
A-2-1-----------
E-----4-2-2h3h4-


Bridge:

G-------------------------
D-------------0-0-0-------
A---2---0-2-2-------3-3-3-
E-1---1-------------------
Comments