Essex Green - Late Great Cassiopia Chords & Tabs

 

Late Great Cassiopia Chords & Tabs

Essex Green Chords & Tabs

Version: 1 Type: Tab 0 ratings
1 star 2 stars 3 stars 4 stars 5 stars
comments

Late Great Cassiopia Tab

   
     
        "The Late Great Cassiopia"
             the Essex Green
   Taken from the Album "The Long Goodbye"

Guitar 1
    E                  F#m      A
e-|------------------------------------------|
B-|------------------------------------------|
G-|------------------------------------------|
D-|-----------2-2---------------2-2----------|
A-|---------2-----4-2---------2-----4-2------|
E-|--0--0-4-----------4-2--2-4----------4-0--|
Guitar 2
e-|---0----0----0----0----0----0----0----0---|
B-|---0----0----0----0----0----0----0----0---|
G-|------------------------------------------|
D-|------------------------------------------|
A-|------------------------------------------|
E-|------------------------------------------|

Verse:
      E              B             C#m
 I was born today in all them constellations
    A               E              B
the minor where the major wants to be...

Chorus:
A        Am                 E   C#m
Now......What will they say?
A        Am               E      C#m  F#m   B
Now......What can they do anyway?       anyway?

Solo:
Guitar 1
e-|-------12-12-------12-12-------12-12-------12-12-------12-12----|
B-|--12---12-12--12---12-12--12---12-12--12---12-12--12---12-12----|
G-|--14b16-------14b16-------14b16-------14b16-------14b16---------|
D-|----------------------------------------------------------------|
A-|----------------------------------------------------------------|
E-|----------------------------------------------------------------|
[ Tab from: http://www.guitartabs.cc/tabs/e/essex_green/late_great_cassiopia_tab.html ]
Guitar 2                    E                                  B
e-|----------------------------------------------------------------|
B-|----------------------------------------------------------------|
G-|-----4----------------------------------------------------------|
D-|--s6---6-4--4p2---2-------4b6-4b6--b6r4--2---4b6-4b6-6r4-2--4---|
A-|----------------4---4-------------------------------------------|
E-|----------------------------------------------------------------|
    A                    E                                 B
e-|----------------------------------------------------------------|
B-|----------------------------------------------------------------|
G-|----------------------------------------------------------------|
D-|------2-----2--4p2----4b6-4b6--b6r4--2---4b6-4b6-6r4-2--4-------|
A-|--2-4---2-4--------4--------------------------------------------|
E-|----------------------------------------------------------------|
     A                 E                              B
e-|----------------------------------------------------------------|
B-|----------5--7p5----7b9-7b9-b9r7-5--7b9-7b9-b9r7-5-7------------|
G-|------4-6--------6----------------------------------------------|
D-|--4-6-----------------------------------------------------------|
A-|----------------------------------------------------------------|
E-|----------------------------------------------------------------|
     A                            E                   B
e-|-------------7---7--9p7--7-----0000-0--0--0--0--0--000----------|
B-|-----5-7-7s9---9-------9---9---9999-10-12-10-12-9--777----------|
G-|-4-6------------------------------------------------------------|
D-|----------------------------------------------------------------|
A-|----------------------------------------------------------------|
E-|----------------------------------------------------------------|
Comments