Essex Green - Julia Chords & Tabs

 

Julia Chords & Tabs

Essex Green Chords & Tabs

Version: 1 Type: Tab 0 ratings
1 star 2 stars 3 stars 4 stars 5 stars
comments

Julia Tab

   
              
              "Julia"
          the Essex Green
  From The Album "the Long Goodbye"

[ Tab from: http://www.guitartabs.cc/tabs/e/essex_green/julia_tab.html ]
Guitar 1: 
e-|-----2------------------------| 
B-|-------3----0----2------------| 
G-|---2-----------------2--------| 
D-|-0-------------2-----0--------| 
A-|----------2-------------------| 
E-|------------------------------| 
Guitar 2:
e-|------------3----0------------| 
B-|---------s5----2--------------| 
G-|---------s4----2--------------| 
D-|------------------------------| 
A-|------------------------------| 
E-|------------------------------| 


D          Bm                  Em    A 
You may be on centraltime girl (julia)... 

Em                A 
It's a sad to get lonely... 

Em      A             G       A 
You and me we got to hoard the key...
Comments