Espers - Daughter Chords & Tabs

 

Daughter Chords & Tabs

Espers Chords & Tabs

Version: 1 Type: Tab

Daughter Tab

-------------------------------------------------------------------------------
			     Daughter (intro) - Espers
-------------------------------------------------------------------------------
Tabbed by: Empyrean
Email: sixteendaysinapril@yoohoo.com

Tuning: EADGBe
[ Tab from: http://www.guitartabs.cc/tabs/e/espers/daughter_tab.html ]
e|----------0------------------------|
B|----0h1-------1-------7-----------3|
G|--2-----2---------2---------7---2--|
D|2-----------2---2-------9-----7----| x2
A|0-------------------0-----0--------|
E|-----------------------------------|

e|----------0------------------------|
B|----0h1-------1-------7------------|
G|--2-----2---------2---------7h9-7--|
D|2-----------2---2-------9-0--------|
A|0-------------------0--------------|
E|-----------------------------------|

http://www.espers.org/