Eskimo Toccata - Bubblegum Chords & Tabs

 

Bubblegum Chords & Tabs

Eskimo Toccata Chords & Tabs

Version: 1 Type: Bass Tab 0 ratings
1 star 2 stars 3 stars 4 stars 5 stars
comments

Bubblegum Bass Tab

BUBBLEGUM
BY ESKIMO TOCCATA (GLYNNY)
TABBED BY BRYSON GORE      

INTRO  
|-------------------------------------------------------------------|
|-------------------------------------------------------------------|
|-5-5-3-2-3-3---2-0-----------------5-5-3-2-3-3---2-5-------3--3--3-|
|-------------3-----------3--3--3---------------3-------------------|

VERSE
|-------------------------------------------------------------------|
|-------------------------------------------------------------------|
|-5-5-3-2-3-3---2-0-0-3-2-----------5-5-3-2-3-3---2-5-5-3-2-3--3--3-|
|-------------3-----------3--3--3---------------3-------------------|

BRIDGE
|--------------------------------------------------|
|--------------------------------------------------|
|---------------------------7-7-5---5-5-3--3--2--3-|
|-3-3-2---5-5-3--5--3--2---------------------------|

|-------------------------------|
|-------------------------------|
|--------------2-2-2--2--2----3-|
|-3-3-3--3--3-------------------|
[ Tab from: http://www.guitartabs.cc/tabs/e/eskimo_toccata/bubblegum_btab.html ]
CHORUS
|-------------------------------------------------------------|
|-------------------------------------------------------------|
|-3---3-3-------3-3-3-3-------5-5-5-5-5-5-5-5-3-3-3-3-0-0-0-0-|
|---------3-3-3---------3-3-3---------------------------------|

|-----------------------------------------------------------------|
|-----------------------------------------------------------------|
|-2-2-2-2-2-2-2-2-5-5-5-5-5-5-5-5-5-5-5-5-5-5-5-5-3-3-3-3-0-0-0-0-|
|-----------------------------------------------------------------|

KEY-CHANGE CHORUS
|-------------------------------------------------------------|
|-----------------------------4-4-4-4-4-4-4-4-----------------|
|-7---7-7-------7-7-7-7-----------------------7-7-7-7-4-4-4-4-|
|---------7-7-7---------7-7-7---------------------------------|

|-----------------------------------------------------------------|
|-----------------4-4-4-4-4-4-4-4-4-4-4-4-4-4-4-4-----------------|
|-6-6-6-6-6-6-6-6---------------------------------7-7-7-7-4-4-4-4-|
|-----------------------------------------------------------------|

Comments