Eskimo Toccata - Broken People Chords & Tabs

 

Broken People Chords & Tabs

Eskimo Toccata Chords & Tabs

Version: 2 Type: Bass Tab 0 ratings
1 star 2 stars 3 stars 4 stars 5 stars
comments

Broken People Bass Tab

BROKEN PEOPLE
BY ESKIMO TOCCATA
TABBED BY BRYSON GORE

INTRO/VERSE
|-------------------------------------------|
|-------------------------------------------|
|-3-3-0----------------3-3-0-------0-2-0----|
|-------3-3-0-1----1---------3-3-0-------1--|

|-------------------------------------------|
|-------------------------------------------|
|-3-3-0----------------3-3-3-3--------------|
|-------3-3-0-1----1-----------3-3-3-3------|

PRE CHORUS
|-----------------------------------------------------------------|
|-----------------------------------------------------------------|
|-3--3--3--3-3-5--5--5--5-5-x-x-x-0--0--0--0-0-5--5--5--5-5-x-x-x-|
|-----------------------------------------------------------------|
[ Tab from: http://www.guitartabs.cc/tabs/e/eskimo_toccata/broken_people_btab_ver_2.html ]
|-----------------------------------------------------------------|
|---------------------------------------------------7----5----4---|
|-3--3--3--3-3--------------x-x-x-0--0--0--0-0-5------------------|
|--------------3--3--3--3-3---------------------------------------|

CHORUS
|-------------------------------------------------------------|
|-------------------------------------------------------------|
|-----------5-5-5-5---0-0-0-0-----------------------5-5-5-5---|
|-3-3-3-3-0---------0---------3-1-1-1-1-3-3-3-3-3-0---------0-|

|---------------------------------|
|---------------------------------|
|-2-2---0-2-2---0-2-2---0-2-0-2-0-|
|---------------------------------|

MIDDLE 8
|-------------------------|
|-------------------------|
|-3>----3>-------5>----5>-|
|----3>----3>-5>----5>----|

|-----------------------------------------|
|-----------------------------------------|
|-3-3-3-3-3-3-3-0-3-2---------------0-3-2-|
|---------------------3-3-3-3-3-3-3-------|

|-----------------------------------------|
|-----------------------------------------|
|---------------0-3-2-5-5-5-5-5-5-5-0-3-2-|
|-5-5-5-5-5-5-5---------------------------|
Comments