Eskimo Joe - Who Sold Her Out Chords & Tabs

 

Who Sold Her Out Chords & Tabs

Eskimo Joe Chords & Tabs

Version: 1 Type: Bass Tab 0 ratings
1 star 2 stars 3 stars 4 stars 5 stars
comments

Who Sold Her Out Bass Tab

Author/Artist: Eskimo Joe
Title: Who Sold Her Out
Album: Girl
Transcribed by: Jaxon Taylor
Email: at_the_drivein@hotmail.com

Standard Tuning (EADG)
[ Tab from: http://www.guitartabs.cc/tabs/e/eskimo_joe/who_sold_her_out_btab.html ]
VERSE
-|---------------------------------|
-|---------------------------------|
-|---------------------------------|
-|-7-7-7-7-5-5-5-5-4-4-4-4-0-0-0-0-|
                                                                              
CHORUS
-|---------------------------------|
-|---------------------------------|
-|---------------------------------|
-|-7-7-7-7-0-0-0-0-3-3-3-3-3-3-3-3-|
                                                                              
POST-CHORUS
-|-----------------------------------------------------------------|
-|-----------------------------------------------------------------|
-|-----------------------------------------------------------------|
-|-7-7-7-7-7-7-7-7-0-0-0-0-0-0-0-0-3-3-3-3-3-3-3-3-7-7-7-7-3-3-3-3-|
                                                                              
BRIDGE

-|---------------------------------------------|
-|---------------------------------------------|
-|---------------------------------------------|
-|-44-00-00-33-7-7-7-7-0-0-0-0-3-3-3-3-3-3-3-3-|

Not too sure of the first half of the bridge but yeah thats pretty
close.
                                                                              
SONG ORDER
VERSE X4
CHORUS x2
VERSE x4
CHORUS X2
POST CHORUS X2
BRIDGE X1
VERSE X4
CHORUS X2
POST CHORUS X2
BRIDGE X2
POST CHORUS X2
CHORUS X6
Comments