Eskimo Joe - Turn Up Your Stereo Chords & Tabs

 

Turn Up Your Stereo Chords & Tabs

Eskimo Joe Chords & Tabs

Version: 1 Type: Tab 0 ratings
1 star 2 stars 3 stars 4 stars 5 stars
comments

Turn Up Your Stereo Tab

   
`Turn up your stereo'
by Eskimo Joe
Tab by zakram66@hotmail.com
Feel free to correct any of this..

Played in standard tuning (EADGBE)

Intro 

E|-----------16-------16-------16----------
B|--------17----17-------17-------17----17-
G|-----16----------16-------16-------16----
D|--14-------------------------------------

or do this (sounds the same, only its not how they play it)

B|-------9-----9-----9--------
G|-----9---9-----9-----9---9--
D|---9-------9-----9-----9----
A|-7--------------------------

Verse

E|-12---14    Those notes are just played dover and over.
B|-14---15

Chorus ("turn up... turn up.. etc")

~Play each note 8 times~
     
     E5  B5  A5  E5
G|---9---------------
D|---9---9---7---2--- ~Play each note 8 times~
A|---7---9---7---2---
E|-------7---5---0---

For the "whoa-oh" bit.. play this

Chorus #2

Play each note with a * 8 times
[ Tab from: http://www.guitartabs.cc/tabs/e/eskimo_joe/turn_up_your_stereo_tab.html ]
      D5  C#5   A             G  A 
G|----*7---*6-----------------------
D|----*7---*6---7-7-7-7-7-7-7-6-*7--- 
A|----*5---*4---7-7-7-7-7-7-7-6-*7---
E|--------------5-5-5-5-5-5-5-4-*5---

Fill in (during the verses, there is this little distorted fill in)

     D5  A5B5
G|---7---------
D|---7---7-9---
A|---5---7-9---
E|-------5-7---

Bridge? ("Lets go!")
Someone.. correct me please cause i know this is wrong.
These are just the (wrong?) chords; i couldn't get the solo.

G|---5---------------
D|---5---5---9---7---
A|---7---5---9---7--- ~Play each note 4 times~ 
E|-------3---7---5---

Outro ("ba-na-na-nana" etc)

D|---2---9---7---2---
A|---2---9---7---2--- ~Play each note 8 times~
E|---0---7---5---0---

Song format :

Intro             x6
Chorus #2         x2
Verse             x8
Fill in           x2
Verse             x6
Fill in           x2
Verse             x2
Chorus            x2
Chorus #2         x2
Verse             x8
Fill in           x2
Verse             x6
Fill in           x2
Verse             x2
Chorus            x2
Chorus #2         x2
Bridge            x4
Intro             x8
Chorus #2         x2
Outro             x4
End on E (2nd fret)





Comments