Eskimo Joe - Planet Earth Chords & Tabs

 

Planet Earth Chords & Tabs

Eskimo Joe Chords & Tabs

Version: 1 Type: Tab 0 ratings
1 star 2 stars 3 stars 4 stars 5 stars
comments

Planet Earth Tab

   
planet earth
Eskimo Joe

Intro/Verse
e|------------------------------0--------
b|---3-2-0----------------0-2-3--3-2-0---
g|---------2-0--0--------0---------------
d|-------------4--------------------
a|----------------------------------
E|----------------------------------

e|------------------------------------------
b|---3-2-0--0-2-3-----------0----0h2p0-2-3--
g|--------2-------------1-2-----------------
d|---------------------2--------------------
a|------------------------------------------
E|------------------------------------------
[ Tab from: http://www.guitartabs.cc/tabs/e/eskimo_joe/planet_earth_tab.html ]
Chorus:
Strum chords:
D           Em          D           Em    G
//// |//// |//// |//// |//// |//// |//// |//// |

I know its not right but it fits.

Interlude:  
Em  G   D Em  D Em G 
D  Em  D  Em  G 


Song structure:
Intro riff
Verse riff x2
Chorus
Verse riff x2
Chorus x2
Interlude
Chorus
Outro (play through last line of chorus twice more, end on 'D')


Any corrections or the right chorus send to 
elmohugh@hotmail.com
thanks
elmo
Comments