Eskimo Joe - From The Sea Chords & Tabs

 

From The Sea Chords & Tabs

Eskimo Joe Chords & Tabs

Version: 1 Type: Tab 1 rating
1 star 2 stars 3 stars 4 stars 5 stars
comments

From The Sea Tab

Intro/Verse
e|-------------------------|
B|-------------------------|
G|-------------------------|
D|-4-4-4-4-8-8-8-8-8-8-8---|
A|-4-4-4-4-8-8-8-8-8-8-8---|
E|-2-2-2-2-6-6-6-6-6-6-6---|
   X X X X X X X X 

Bridge - (its like a radar and it comes to you)
e|----------------------------|
B|----------------------------|
G|----------------------------|
D|-4-4-4-4-8-8-8-8-6-6-6-6----|
A|-4-4-4-4-8-8-8-8-6-6-6-6----|
E|-2-2-2-2-6-6-6-6-4-4-4-4----|
[ Tab from: http://www.guitartabs.cc/tabs/e/eskimo_joe/from_the_sea_tab.html ]
Chorus - (From the seaaaa, From the seaaa)
e|------------------------------|
B|------------------------------|
G|------------------------------|
D|-5-5-5-4-4-4-8-8-8-6-6-6------|
A|-5-5-5-4-4-4-8-8-8-6-6-6------|
E|-3-3-3-2-2-2-6-6-6-4-4-4------|

Chorus Pt2 - (Hello Hello ohh Hello)
e|-----------------------------------------|
B|-----------------------------------------|
G|-----------------------------------------|
D|-8-8-8-8-11-11-11-11-4-4-4-4-4-4-8-6-4---|
A|-8-8-8-8-11-11-11-11-4-4-4-4-4-4-8-6-4---|
E|-6-6-6-6-9--9--9--9--2-2-2-2-2-2-6-4-2---|

then.... (only just beggining to know)
e|------------------------------|
B|------------------------------|
G|------------------------------|
D|-6-6-6--4-4-4-----------------|
A|-6-6-6--4-4-4-----------------|
E|-4-4-4--2-2-2-----------------|

awsome new song off Eskimo Joe's new album.
cheers
skip
Comments