Eskimo Joe - Driver Chords & Tabs

 

Driver Chords & Tabs

Eskimo Joe Chords & Tabs

Version: 1 Type: Tab 0 ratings
1 star 2 stars 3 stars 4 stars 5 stars
comments

Driver Tab

   
Song Title:	Driver
Album:		Girl (2001)
Band:		Eskimo Joe
All credit to:  http://eskyjoe.cjb.net

tab can be found @ http://eskyjoe.cjb.net/Tablature/Guitar/Albums/Girl/Driver%20(Guitar).txt


Listen to CD for strumming.

Intro
~~~~~
     F    A#
E: |---------|
B: |------3--|
G: |-2----3--| x 3
D: |-3----3--|
A: |-3----1--|
E: |-1-------|

Verse
~~~~~
      F    A#   F    A#   C#   A# C# F    A#   F    A#   F    A#   C#   A# C# F
E: |-----------------------------------------------------------------------------|
B: |-------3---------3----6----3--6-------3---------3---------3----6----3--6-----|
G: |--2----3----2----3----6----3--6--2----3----2----3----2----3----6----3--6--2--|
D: |--3----3----3----3----6----3--6--3----3----3----3----3----3----6----3--6--3--|
A: |--3----1----3----1----4----1--4--3----1----3----1----3----1----4----1--4--3--|
E: |--1---------1--------------------1---------1---------1--------------------1--|

Chorus 1
~~~~~~~~
      A# C# F    A# C# F
E: |----------------------|
B: |--3--6-------3--6-----|
G: |--3--6--2----3--6--2--|
D: |--3--6--3----3--6--3--|
A: |--1--4--3----1--4--3--|
E: |--------1----------1--|
[ Tab from: http://www.guitartabs.cc/tabs/e/eskimo_joe/driver_tab.html ]
Verse
~~~~~
      F    A#   F    A#   C#   A# C# F    A#   F    A#   F    A#   C#   A# C# F
E: |-----------------------------------------------------------------------------|
B: |-------3---------3----6----3--6-------3---------3---------3----6----3--6-----|
G: |--2----3----2----3----6----3--6--2----3----2----3----2----3----6----3--6--2--|
D: |--3----3----3----3----6----3--6--3----3----3----3----3----3----6----3--6--3--|
A: |--3----1----3----1----4----1--4--3----1----3----1----3----1----4----1--4--3--|
E: |--1---------1--------------------1---------1---------1--------------------1--|

Chorus 2
~~~~~~~~
      A# C# F    A# C# F    G# A# F
E: |---------------------------------|
B: |--3--6-------3--6----------3-----|
G: |--3--6--2----3--6--2----5--3--2--|
D: |--3--6--3----3--6--3----6--3--3--|
A: |--1--4--3----1--4--3----6--1--3--|
E: |--------1----------1----4-----1--|

Solo - Guitar 1
~~~~~~~~~~~~~~~
E: |----------------------------------------|
B: |----------------------------------------|
G: |--105/63-3/105/63-3/105/63-3/10~--|
D: |----------------------------------------|
A: |----------------------------------------|
E: |----------------------------------------|

Solo - Guitar 2
~~~~~~~~~~~~~~~
(Played at the same time as Guitar 1)
E: |----------------------------------------|
B: |----------------------------------------|
G: |------------------1312-13--------------|
D: |----------------------------------------|
A: |----------------------------------------|
E: |----------------------------------------|

Chorus 3
~~~~~~~~
      A# C# F    A# C# F    A# C# F    G# A# F
E: |--------------------------------------------|
B: |--3--6-------3--6-------3--6----------3-----|
G: |--3--6--2----3--6--2----3--6--2----5--3--2--|
D: |--3--6--3----3--6--3----3--6--3----6--3--3--|
A: |--1--4--3----1--4--3----1--4--3----6--1--3--|
E: |--------1----------1----------1----4-----1--|
Comments