Escape Club - Wild Wild West Chords & Tabs

 

Wild Wild West Chords & Tabs

Escape Club Chords & Tabs

Version: 1 Type: Bass Tab 0 ratings
1 star 2 stars 3 stars 4 stars 5 stars
comments

Wild Wild West Bass Tab

wild wild west-escape club..bass


tabbed by alex 


G---------------------|
D---------------------|MAIN PART
A------------5-6------|
E-7-7-5-7--7----7-5---|


CHORUS|

[ Tab from: http://www.guitartabs.cc/tabs/e/escape_club/wild_wild_west_btab.html ]
G--------------------------|
D--------------------------|
A--------2--4-2--2-2-2-----|X4
E-0-0-4-4--------------4-2-|

G----------|-----------|
D----------|-----------|MAIN PART
A----------|-----------|
E-5-5--5-5-|-5-5--5-5--|

PLAY CHORUS OVER GUITAR SOLO

THERE ARE OTHER BITS, BUT THIS WILL GET YOU THRU........
Comments