Eros Ramazzotti - Cose Della Vita Chords & Tabs

 

Eros Ramazzotti Chords & Tabs

Version: 1 Type: Tab 0 ratings
1 star 2 stars 3 stars 4 stars 5 stars
comments

Cose Della Vita Tab

   
BAND: Eros Ramazzotti
BAND: Cose della vita
TABER: Todo-Gusar
TABED: 9/7/2008

My tab explanations:

h - hammer on
p - pull off
/ - Slide down
\ - Slide up

This is a version without Tina Turner.
Acoustic and electric guitars are used. Use a bit of reverb and chorus on clean parts. 
closely to the dynamics of the guitar playing and use this tab as a guide (the tab is 
but you can´t "draw" or "write" the little nuances in the guitar playing).

INTRO
1st Guitar

  F#m     D     F#m    D
e ------------------------------|
B ---2-----3-------2-----3------|
G -----2-----2-------2-----2----|      (2x)
D -------0-----0-------0-----0--|
A ------------------------------|
E -2-------------2--------------|

2nd Guitar

         F#m D             F#m D
e --------2-----2-----------2-----2----------|
B --------2--3--2--3--------2--3--2--3-------|
G --------2--2--2--2--------2--2--2--2-------|
D --------4--0--4--0--------4--0--4--0-------|
A --------4--0--4--0--------4--0--4--0---0---|
E -0-1-2--2-----2-----0-1-2-2--2--2----0---2-|


VERSE 1.

       Sono umane situazioni
       quei momenti fra di noi
       i distacchi e i ritorni
       da capirci niente poi...

    F#m     D              A      E
e ---2---------------------5----------|
B ---2------7--------------5------9---|
G ---2------7--------------6------9---|
D ---4------7--------------7------9---|    (4x)
A ---4------5--------------7------7---|
E ---2---------------------5----------|

FILL
E -5-5-5-5-5-5-5-5-5-5-4-4-4-|
B -7-7-7-5-5-5-5-5-5-5-5-5-5-|


VERSE 2.
1st Guitar

    giá  come vedi
    sto pensando a te...

    B#m  Dmaj     E
e ---2----------------------|
B ---3-----3------9---------|
G ---4-----2------9---------|     (2x)
D ---4-----4------9---------|
A ---2-----0------7---------|
E --------------------------|

2nd Guitar

    B#m      Dmaj      Esus2
e ---------------------------2---------|
B -------3--------3--------5---5-------|
G ---------4--------2----4-------4-----|
D -----4--------4------------------2---|
A ---2--------0------------------------|
E ---------------------0---------------|

        si... da un po'

    F#m     D              A      E
e ---2---------------------5----------|
B ---2------7--------------5------9---|
G ---2------7--------------6------9---|
D ---4------7--------------7------9---|    (2x)
A ---4------5--------------7------7---|
E ---2---------------------5----------|

SOLO
e ----9---9----7-5-4------------9---9-7-5-4---2--|
B --7---7---7--7-7-5-7/5-5--5/7---7---7-7-5------|


VERSE 1.

       Sono umane condizioni
       stare bene oppure no
       puo dipendere dai giorni
       dalle nostalgie che ho...


    F#m    D               A      E
e ---2---------------------5----------|
B ---2------7--------------5------9---|
G ---2------7--------------6------9---|
D ---4------7--------------7------9---|    (4x)
A ---4------5--------------7------7---|
E ---2---------------------5----------|


VERSE 2.
1st Guitar

    giá  come vedi
    sto pensando a te...

    B#m   Dmaj    E
e ---2----------------------|
B ---3-----3------9---------|
G ---4-----2------9---------|     (2x)
D ---4-----4------9---------|
A ---2-----0------7---------|
E --------------------------|

2nd Guitar

  B#m       Dmaj     Esus2           B#m     Dmaj    Esus2
e -------------------------2-------|-----------------------2---4--5--|
B -----3--------3--------5---5-----|-----3-------3-------5-----------|
G -------4--------2----4-------4---|-------4-------2---4-------------|
D ---4--------4------------------2-|---4-------4---------------------|
A -2--------0----------------------|-2-------0-----------------------|
E -------------------0-------------|-----------------0---------------|


VERSE 3.

  Come se questo tempo non fasse passato mai
  dove siamo stati cosa siamo poi
  confinanti di cuore solo che ognuno sta
  dietro gli steccati degliorgogli suoi
  sto pensando a te

     A C#m   B#m F#m  A C#m   B#m F#m C#m B#m
e ------4-----2---2-|----4-----2--2----4--2---------|
B ---2--5-----3---2-|-2--5-----3--2----5--3---------|
G ---2--6-----4---2-|-2--6-----4--2----6--4---------|
D ---2--6-----4---4-|-2--6-----4--4----6--4---------|
A ---0--4-----2---4-|-0--4-----2--4----4--2---------|
E ----------------2-|-------------2-----------------|
2nd Guitar  plays the same chords, but the strumming pattern is different. It´s 
listen and repeat...


FILL at F#m
G ---------------2-1----------|
D -------------------4-2------|
A -----------------------4-2--|


VERSE 1.      sto pensando...woohoo...yeah

    F#m     D              A      E
e ---2---------------------5----------|
B ---2------7--------------5------9---|
G ---2------7--------------6------9---|
D ---4------7--------------7------9---|    (2x)
A ---4------5--------------7------7---|
E ---2---------------------5----------|


VERSE 1. + SOLO (One step up) G# !!!

1st Guitar

    G#m     E              B      F#
e ---4---------------------7-----------|
B ---4------7--------------7------11---|
G ---4------9--------------8------11---|
D ---6------9--------------9------11---|    (2x)
A ---6------7--------------9------9----|
E ---4---------------------7-----------|

2nd Guitar

          G#m E  B F#      G#m E  B  F#
e --------4--0-----2--------4--0-----2-------|
B --------4--0--4--2--------4--0--4--2-------|
G --------4--1--4--3--------4--1--4--3-------|
D --------6--2--4--4--------4--2--4--5-------|
A --------6--2--2--4--------6--2--2--4-------|
E -2-3-4--4--0-----2--2-3-4-4--0-----2-------|

SOLO
e ----11---11----9-7-6------------11---11---9-7-6---4--|
B --9----9----9--9-9-7-9/9-9--7/9--- 9----9-9-9-7------|

VERSE 1. (one step up)

[ Tab from: http://www.guitartabs.cc/tabs/e/eros_ramazzotti/cose_della_vita_tab.html ]
      Sono cose della vita
      vanno prese un po cosi
      e gia stata una fatica
      arivare fino qui

    G#m    E               B      F#
e ---4---------------------7-----------|
B ---4------7--------------7------11---|
G ---4------9--------------8------11---|
D ---6------9--------------9------11---|    (4x)
A ---6------7--------------9------9----|
E ---4---------------------7-----------|

FILL
E -4-4-4-2-2-2-2-2-4-4-4-2-2-2-2-2-|
B -4-4-4-4-4-4-4-4-4-4-4-2-2-2-0-2-|  (4x)


VERSE 2.1.
1st Guitar

    giá  come veri
    io sto ancora in pieri...perche

     C#m   B     F#
e ---4------------2---------|
B ---5-----4------2---------|
G ---6-----4------3---------|     (2x)
D ---6-----4------4---------|
A ---4-----2------4---------|
E ----------------2---------|

2nd Guitar

  C#m       EaddB     F#sus2         C#m     EaddB    F#sus2
e -------------------------4-------|-----------------------6-4h6p4-----|
B -----5--------5--------7---7-----|-----5-------5-------7---------7---|
G -------6--------4----6-------6---|-------6-------4---6-------------6-|
D ---6--------6------4-----------4-|---6-------6-----4-----------------|
A -4-------------------------------|-4---------------------------------|
E ----------7----------------------|---------7-------------------------|


VERSE 4.(slower chord changes)

     Sono umani tutti i sogni miei
     con le mani io li prenderei
     si perche
     sono umani questi sogni miei
     con le mani io li prenderei

1st Guitar

    G#m    E               B      F#
e ---4---------------------7-----------|
B ---4------7--------------7------11---|
G ---4------9--------------8------11---|
D ---6------9--------------9------11---|    (2x)
A ---6------7--------------9------9----|
E ---4---------------------7-----------|

2nd Guitar

  G#m E          F#sus2
e -4--0----------------4-----------4-------|
B -4--0-7---7--------7---7-------7---7-----|
G -4--1-6p8-6----4-4-------4---6-------6---|
D -6--2-------4/6------------4-----------4-|
A -6--2------------------------------------|
E -4--0------------------------------------|


  G#m  E      F#sus2
e -4--0----------------4-----------6-4h6p4------|
B -4--0-7---7--------7---7-------7---------7----|
G -4--1-6p8-6----4-4-------4---6-------------6--|
D -6--2-------4/6------------4------------------|
A -6--2-----------------------------------------|
E -4--0-----------------------------------------|


VERSE 1.(Another step up) A !!!

      Sono cose della vita
      ma la vita poi dov'e...dov'e
      se da quando e partita
      un inseguimento e...

1st Guitar

    Am      F              C      G
e ---0------1--------------0------2---|
B ---1------1--------------1------2---|
G ---2------2--------------0------0---|
D ---2------3--------------2------0---|    (4x)
A ---0------3--------------3------2---|
E ----------1---------------------3---|

2nd Guitar

   Am  F       C  Gsus2    Am  F       C  Gsus2
e --0--1-1-----0--5-5-----|-0--1-1-----0--5-7-5----|
B --1--1---1---1--8---8---|-1--1---1---1--8-----8--|
G --2--2-----2-0--7-----7-|-2--2-----2-0--7--------|
D --2--3-------2--5-------|-2--3-------2--5--------|
A --0--3-------3----------|-0--3-------3-----------|
E -----1------------------|----1-------------------|

   Am  F       C  Gsus2     Am F       C  Gsus2
e --0--1-1-----0--5-------|-0--1-1-----0--5-7-5h7p5-----|
B --1--1---1---1--8-----5-|-1--1---1---1--8---------8---|
G --2--2-----2-0--7-5-7---|-2--2-----2-0--7-----------7-|
D --2--3-------2--5-------|-2--3-------2--5-------------|
A --0--3-------3----------|-0--3-------3----------------|
E -----1------------------|----1------------------------|


VERSE 2.
1st Guitar

    gia ... come vedi
    sto pensando ancora a te

    D#m    C      G
e ---1-----0------2---------|
B ---3-----1------2---------|
G ---2-----0------0---------|     (2x)
D ---0-----2------0---------|
A ---------3------2---------|
E ----------------3---------|

2nd Guitar

  D#m       EaddB    F#sus2          D#m     EaddB   F#sus2
e -------------------------5---5---|-----------------------7-5h7p5-----|
B -----6--------6--------8---8---8-|-----6-------6-------8---------8---|
G -------7--------5----7-----------|-------7-------5---7-------------7-|
D ---7--------7------5-------------|---7-------7-----5-----------------|
A -5-------------------------------|-5---------------------------------|
E ----------8----------------------|---------8-------------------------|

VERSE 3.

   Questa notte che passa piano accanto a me
   cerco di affrontarla afferrarla
   e se prendo le curve del cuore sbandando un po
   vaglio provocarla anche adesso che...che
   sto pensando a te

     C  Em   Dm   Am  C  Em   Dm Am   Em Dm
e ------7-----7---5-|----7-----5--5----7--5---------|
B ---5--8-----6---5-|-5--8-----6--5----8--6---------|
G ---5--9-----7---5-|-5--9-----7--5----9--7---------|
D ---5--9-----7---7-|-5--9-----7--7----9--7---------|
A ---3--7-----5---7-|-3--7-----5--7----7--5---------|
E ----------------5-|-------------5-----------------|
2nd Guitar  plays the same chords, but the strumming pattern is different


FILL at Am
G ---------------5-4----------|
D -------------------7-5------|
A -----------------------7-5--|

VERSE 1. + SOLO

    sto pensando a te
    sto pensando a noi
    da un po...

    Am      F              C      G
e ---0------1--------------0------2---|
B ---1------1--------------1------2---|
G ---2------2--------------0------0---|
D ---2------3--------------2------0---|    (3x)
A ---0------3--------------3------2---|
E ----------1---------------------3---|

SOLO
e -----12----12-----10-8--7--------------12----12----10-8--7---5----5|
B --10----10----10--10-10-8-10/8-8--8/10----10----10-10-10-8---------|
Comments