Ernies - Here And Now Chords & Tabs

 

Here And Now Chords & Tabs

Ernies Chords & Tabs

Version: 2 Type: Tab

Here And Now Tab

-------------------------------------------------------------------------------
			     Here and Now - The Ernies
-------------------------------------------------------------------------------
Tabbed by:me
Email:none

Tuning:standard (eBGDAE)

Intro(x2)
e|-------------------------------------------------------------------------------------------|
B|-------------------------------------------------------------------------------------------|
G|--------------------------------------(x3)-------------------------------------------------|
D|-------------------------------------------------------------------------------------------|
A|-----7-----5------5------5------5h7---------------7--------5-------8------5------------5h7-|
E|-0-0---0-0----0-0----0-0----0-0--------------0-0------0-0-----0-0-----0-0-----0-0----------|

Verse(x8)
e|---------------------------------------------------------------------------|
B|---------------------------------------------------------------------------|
G|---------------------------------------------------------------------------|
D|-----------------4h5p4-----------------------------------------------------|
A|------------3-5----------5-3-----------------------------------------------|
E|---3-5-3-5--------------------5--------------------------------------------|
P.M. .   . 

Prechorus: play intro once for prechorus
[ Tab from: http://www.guitartabs.cc/tabs/e/ernies/here_and_now_tab_ver_2.html ]
Chorus(x8)         
e|---------------------------------------------------------------------------|
B|---------------------------------------------------------------------------|
G|---------------------------------------------------------------------------|
D|-------5h7----------5-------5------5h7-------------------------------------|
A|--0-0------0-0-0-0-----0-0-----0-0-----------------------------------------|
E|---------------------------------------------------------------------------|

Verse2(x8) (same as verse1)
Prechorus(x1)
Chorus(x8)

Bridge Part 1(x2) 
e|---------------------------------------------------------------------------|
B|---------------------------------------------------------------------------|
G|-------------------------------------------------------------------(x1)----|
D|--5h7-7--------4h5p4---------(x1)-----------------------4h5p4--------------|
A|----------3-5----------5-3-------------------------3-5---------5-3---------|
E|---------------------------5--------------3-5-3-5-------------------5------|               
                                       P.M. .   .
The next part has some really strange effect and I couldnt figure it out, sorry.

then: Verse Riff (x4)
Intro/Prechorus Riff(x2)
Chorus(x8)

Outro(x4)            (#)=Play last time only!
e|---------------------------------------------------------------------------|
B|---------------------------------------------------------------------------|
G|---------------------------------------------------------------------------|
D|-------5/7-7------5----5-----5/7-(7)---------------------------------------|
A|-------5/7-7------5----5-----5/7-(7)---------------------------------------|
E|---0-0-3/5-5--0-0-3--0-3--0--3/5-(5)---------------------------------------|
P.M. . .        . .    .    .

....and thats it.