Ernies - Here And Now Chords & Tabs

 

Here And Now Chords & Tabs

Ernies Chords & Tabs

Version: 1 Type: Tab 0 ratings
1 star 2 stars 3 stars 4 stars 5 stars
comments

Here And Now Tab

hey whats up-hola yo soy aldo alaron herrera y este es el tab q yo saque de esta
cancion q me gusta x el juego de tony hawk pro skater 1 espero q este chevere

i wrote the tabs for this song because i couldnt find them anywhere


Intro:
E----------------------------------------------------------------
B----------------------------------------------------------------
G----------------------------------------------------------------
D----------------------------------------------------------------
E-----00-----00---00---00-----00---------------------------------
A--------5-----5----5----5------5/7------------------------------




B----------------------------------------------------------------
G----------------------------------------------------------------
D----------------------------------------------------------------
A--------5-----5----5----8----5---5/7----------------------------
E-----00-----00---00---00---00--00-------------------------------

Verse
[ Tab from: http://www.guitartabs.cc/tabs/e/ernies/here_and_now_tab.html ]
E----------------------------------------------------------------
B----------------------------------------------------------------
G----------------------------------------------------------------
D------------4h5h4-----------------------------------------------
A--------3h5-------5h3-------------------------------------------
E--5h3h5-----------------5h3h5-----------------------------------


Chorus
E----------------------------------------------------------------
B----------------------------------------------------------------
G----------------------------------------------------------------
D----------------------------------------------------------------
A-----5h3-5h3-5h3-5h3-5h3-----5h3-5h3-5h3-5h3-5h3----------------
E--55---------------------55-------------------------------------


end:
E----------------------------------------------------------------
B----------------------------------------------------------------
G----------------------------------------------------------------
D---5/7----5---5---5---5-----------------------------------------
A---5/7----5---5---5---5-----------------------------------------
E---3/5--0-3-0-3-0-3-0-3-----------------------------------------

Any comments at: atticus969@hotmail.com
and there are some groups i would like u to download : 6 voltios,
inyectores, attaque 77 , rafo raez and la sarita
viva el Perú!!!!!!!!!!!!!!
apoyen lo nacional
Comments