Erik Santos - Kung Akin Ang Mundo Chords & Tabs

 

Kung Akin Ang Mundo Chords & Tabs

Erik Santos Chords & Tabs

Version: 2 Type: Tab 0 ratings
1 star 2 stars 3 stars 4 stars 5 stars
comments

Kung Akin Ang Mundo Tab

Intro:

e|-5-6--5---6--5---6---8----|    2x
B|-5----5-5----5-5---5------|
G|--------------------------|
D|--------------------------|
A|--------------------------|
E|--------------------------|
[ Tab from: http://www.guitartabs.cc/tabs/e/erik_santos/kung_akin_ang_mundo_tab_ver_2.html ]
e|-5--4--3----3-----------2----|
B|-6--5--4--4-------------3----|
G|---------------------4--2----|
D|-------------------4----4----|
A|-----------------2------4----|
E|------------------------2----|


BY:
J  O  E  R  Y    D  U  C  O

e-mail me @ Joery_brinch@yahoo.com

Sorry kung intro muna,
Pakikinggan ko pa ang buong song eh!

Also dedicated to Rhoanne!

R  H  O  A  N  N  E

My one and only love of my life!

I LOVE YOU BABY!
Comments