Erik Santos - It Might Be You Chords & Tabs

 

It Might Be You Chords & Tabs

Erik Santos Chords & Tabs

Version: 1 Type: Tab 0 ratings
1 star 2 stars 3 stars 4 stars 5 stars
comments

It Might Be You Tab

   
Intro:


e|-------3----5-5h7-3-|3x  |---------3----3h5-3-------------|2x
B|-----3---3----------|    |-------3---3--------3h5-3-------|
G|---3----------------|    |-----3--------------------------|
D|-0------------------|    |---0----------------------------|
A|--------------------|    |--------------------------------|
E|--------------------|    |--------------------------------|
[ Tab from: http://www.guitartabs.cc/tabs/e/erik_santos/it_might_be_you_tab.html ]
e|-3---2--10-10-|3x |-12----------------------------------|2x
B|---3----------|   |----13-12-10-8-8---------------------|
G|-3------------|   |-------------------------------------|
D|--------------|   |-------------------------------------|
A|--------------|   |-------------------------------------|
E|--------------|   |-------------------------------------|




verses:(pluck)
G-Bm-C-D

This song is dedicated to my one and only Love

Rhoanne

From Joery,"I'll never ever forget you, for you are the reason why i live. So if
you'll come back to me...i'll never ever leave you...I LOVE YOU!"
Comments