Eric Weissberg - Dueling Banjos Chords & Tabs

 

Dueling Banjos Chords & Tabs

Eric Weissberg Chords & Tabs

Version: 3 Type: Tab 0 ratings
1 star 2 stars 3 stars 4 stars 5 stars
comments

Dueling Banjos Tab

 Dueling Banjos
  tabbed by: iamlegend
  
  These tabs of "dueling banjos" i got from the film
  Deliverance and are close or exactly correct. You
  need a capo on the 2nd fret and it is also played
  with a finger pick. please note that these tabs to 
  not include the banjo part only the guitar.



e|---------------0-----------3--------3-3-3-3-3----3-3-3-3-3----3-3-3-3-3----|
B|---------------0----------0---------0-0-0-0-0----0-0-0-0-0----0-0-0-0-0----|
G|------0--------0---------0----------0-0-0-0-0----0-0-0-0-0----0-0-0-0-0----|
D|------0--------0--------0-----------0-0-0-2-0----2-2-2-0-2----2-2-2-2-2----|
A|-----------------------2------------2-2-2-0-2----0-0-0-2-0----0-0-0-4-0----|
E|----------------------3-------------3-3-3-3-3----3-3-3-3-3----3-3-3-0-3----|

                   play this small segment slow     now play it fast 2x
e|----3-3-3-3-3--------------------------------------------------------------|
B|----0-0-0-0-0-----0-1-3-0-1---0------------------0-1-3-0-1---0-------------|
G|----0-0-0-2-0---------------2---0-2------------------------2---0-2---------|
D|----0-0-0-2-0--------------------------------------------------------------|
A|----0-0-0-0-0--------------------------------------------------------------|
E|----3-3-3-3-3--------------------------------------------------------------|

         From here on the song is played fairly slow
e|---------------------------------------------------------------------------|
B|------------0---0----------------------------------------------------------|
G|------0-0-2---0---2--------------------------------------------------------|
D|----0---------------------------------0---------------------0--------------|
A|--------------------------------0-2-3---3-2-----------0-2-3---3-2----------|
E|--------------------------3-3-3-----------------3-3-3----------------------|

[ Tab from: http://www.guitartabs.cc/tabs/e/eric_weissberg/dueling_banjos_tab_ver_3.html ]
e|---------------------------------------------------------------------------|
B|---------------------------------------------------------------------------|
G|----------------0--------------------------------------------0-------------|
D|----------0-2-3---3-2------------------0---------------0-2-3---3-2---------|
A|----3-3-3------------------------0-2-3---3-2-----3-3-3---------------------|
E|---------------------------3-3-3-------------------------------------------|

                                  now play fast from here on
e|--------------------------------3-3-3-3-3------3-3-3-3-3-------------------|
B|------------0-1-3-1-0-----------0-0-0-2-0------0-0-0-2-0-------------------|
G|----0-0-0-2---------------------0-0-0-0-0------0-0-0-0-0-------------------|
D|--------------------------------0-0-0-2-0------0-0-0-2-0-------------------|
A|--------------------------------0-0-0-0-0------0-0-0-0-0-------------------|
E|--------------------------------3-3-3-3-3------3-3-3-3-3-------------------|

e|---------------------------------------------------------------------------|
B|----0-1-3-0-1---0-----------------0---0------------------------------------|
G|--------------2---0-2-------0-0-2---0---2----------------------------------|
D|--------------------------0------------------------------------------------|
A|---------------------------------------------------------------------------|
E|---------------------------------------------------------------------------|

  The end part of the song was hard to figure out
  but i think its a combination of the chords G,D,F
  with
    |
    |
    |  mixed in
e|---------------------------------------------------------------------------|
B|----0-1-3-0-1---0----------------------------------------------------------|
G|--------------2---0-2------------------------------------------------------|
D|---------------------------------------------------------------------------|
A|---------------------------------------------------------------------------|
E|---------------------------------------------------------------------------|



    Enjoy.
        -Nick
   
    This really helps if you hear the song so you can get the rhythm.
    e-mail: iamlegend006@yahoo.com
Comments