Eric Weissberg - Dueling Banjos Chords & Tabs

 

Dueling Banjos Chords & Tabs

Eric Weissberg Chords & Tabs

Version: 1 Type: Tab 0 ratings
1 star 2 stars 3 stars 4 stars 5 stars
comments

Dueling Banjos Tab

|-------------------------|
|-0-1-3-0-1---0-----------|
|-----------2--0--2-------|
|-------------------------|
|-------------------------|
|-------------------------|
[ Tab from: http://www.guitartabs.cc/tabs/e/eric_weissberg/dueling_banjos_tab.html ]
|-------------------------|
|-0-1-3-0-1---0-----------|
|-----------2--0--2-------|
|-------------------------|
|-------------------------|
|-------------------------|
[ Tab from: http://www.guitartabs.cc/tabs/e/eric_weissberg/dueling_banjos_tab.html ]
|--------------------------------------|
|-0-1-3-0-1---0-------------0---0------|
|-----------2--0--2---0-0-2---0---2----|
|-------------------0------------------|
|--------------------------------------|
|--------------------------------------|
Comments