Eric Peterson - Roll Me Through The Gates Of Hell Chords & Tabs

 

Roll Me Through The Gates Of Hell Chords & Tabs

Eric Peterson Chords & Tabs

Version: 1 Type: Tab 0 ratings
1 star 2 stars 3 stars 4 stars 5 stars
comments

Roll Me Through The Gates Of Hell Tab

   
only advice is listen for the palm mutes, and eric peterson is the man!!

chords:
e|-----1--3--------|
b|--1--1--3--3--1--|
g|--0--2--0--2--2--|
d|--2--3--0--0--2--|
a|--3--3--2-----0--|
E|-----1--3--------|
    C  F  G  D  Am
[ Tab from: http://www.guitartabs.cc/tabs/e/eric_peterson/roll_me_through_the_gates_of_hell_tab.html ]
pre-verse:
e|-------------------------------------|
b|--1-1-1-1h3-3-3-1-1--1-1-1-1--1-1h3--|
g|--0-0-0-0-0-0-0-0-0--2-2-2-2--0-0-0--|
d|--2-2-2-2-2-2-2-2-2--2-2-2-2--0-0-0--|
a|--3-3-3-3-3-3-3-3-3--0-0-0-0--2-2-2--|
E|------------------------------3-3-3--|

chorus: C, F, C, G
verse: C, Am, G
pre-chorus: D, C, D, C, D, C, Am, G, F, G
Comments