Eric Lapointe - Marie-stone Chords & Tabs

 

Marie-stone Chords & Tabs

Eric Lapointe Chords & Tabs

Version: 1 Type: Bass Tab

Marie-stone Bass Tab

   
Title: Marie Stone
Artist: Eric Lapointe
Album: Obsession
Tabber: Steph
Email: cyberbassist@hotmail.com

Voici le version que je joue avec mon band. Un peu plus technique que l'original 

Verse1
              C   G   Bb  Eb        3X  F 0:44
G|-------------------------------------|---------------------------|
D|*--------1--------------11----------*|--------------3-----3--3---|
A|*----1------33------11-----3--------*|----------1----------------|
E|--3----3--------33------------1------|-1-1----1---1-----1--1-----|


Pre-chorus
    G           F            C          Bb            D
G|-----------|-----------|--------5---|------3-----|---------------|
D|*------5--*|*-----3---*|*----------*|*----------*|-----5---------|
A|*---------*|*---------*|*--3--3--3-*|*-1--1---1-*|--5-5-5-2---5--|
E|--3--3---3-|--1--1---1-|------------|------------|----------3----|

Chorus                                        2X
    G           Bb          C         Bb
G|--------------------3----------5---------3----|
D|*-------5------------------------------------*|
A|*-------------1--1---1----3--3---3--1--1---1-*|
E|--3--3---3------------------------------------|

   G                 F              C    4X     
G|------------------------------------------|--------------|
D|*------5-------------------3-------------*|--------5-----|
A|*------------1--------------------3-3-3--*|------5-------|
E|-3--3---3--3---3-2-1-----1---1---1--------|--3--3-3--3---|


Verse2
[ Tab from: http://www.guitartabs.cc/tabs/e/eric_lapointe/marie_stone_btab.html ]
             C   G   Bb  Eb        
G|--------------------------------------------------------------|
D|*--------1--------------11-----------------3h5-7-5--3---------|
A|*----1------33------11-------------333----3--------5-5--3-111-|
E|--3----3--------33------------1-3-------1---------------------|



G|-----------------|
D|----5-3----------|
A|--------5-3-1----|
E|-11--------------|


Pre-chorus
    G           F            C          Bb            D
G|-----------|-----------|--------5---|------3-----|---------------|
D|*------5--*|*-----3---*|*----------*|*----------*|-----5---------|
A|*---------*|*---------*|*--3--3--3-*|*-1--1---1-*|--5-5-5-2---5--|
E|--3--3---3-|--1--1---1-|------------|------------|----------3----|

Chorus                                        2X
    G           Bb          C         Bb
G|--------------------3----------5---------3----|
D|*-------5------------------------------------*|
A|*-------------1--1---1----3--3---3--1--1---1-*|
E|--3--3---3------------------------------------|

   G                 F              C        
G|------------------------------------------|
D|*------5-------------------3-------------*|
A|*------------1--------------------3-3-3--*|
E|-3--3---3--3---3-2-1-----1---1---1--------|

Interlude
G|----------------------------------|
D|*--------------------------------*|
A|*--4-3-1---1------------4-3-1--1-*|
E|---------3---3-1-123---------3----|

     F F# G
G|----------|
D|----------|
A|----------|
E|---1-2-3~-|

EnJOy!
cyberbassist