Eric Johnson - Manhattan Chords & Tabs

 

Manhattan Chords & Tabs

Eric Johnson Chords & Tabs

Version: 1 Type: Tab 0 ratings
1 star 2 stars 3 stars 4 stars 5 stars
comments

Manhattan Tab

   
-------------------------------------------------------------------------------
			 Manhattan - Eric Johnson
-------------------------------------------------------------------------------
Tabbed by: MATT BOSTOCK
Email: slipknotbos@hotmail.com

Tuning: E A D G B E

| /  slide up
| \  slide down
| h  hammer-on
| p  pull-off
| ~  vibrato
| +  harmonic
| x  Mute note

HELLO!!!!!!!!!   LONG TIME SINCE I POSTED A TAB BUT AS THE REST I CREATED THROUGH
LISTENING TO THE SONG WITH MY MATE AND ITS 100% ACCURATE...!!!

ENJOY  P.S..... I ADVISE U TRY THE TAB WHILE LISTENING TO THE TRACK... CHEESE

e|---------------------------------------------------------------------------|
B|-16-14---------------------------------------------------------------------|
G|-------15---11-13-15----11h13p11-------------11----------------------------|
D|---------------------------------13-11-13-11----13-------------------------|
A|---------------------------------------------------------------------------|
E|---------------------------------------------------------------------------|
[ Tab from: http://www.guitartabs.cc/tabs/e/eric_johnson/manhattan_tab.html ]
e|---------------------------------------------------------------------------|
B|-16-14---------------------------------------------------------------------|
G|-------15---11-13-8-----11/13----------------------------------------------|
D|------------------------11/13--11/13\11------------------------------------|
A|-------------------------------11/13\11------------------------------------|
E|---------------------------------------------------------------------------|

e|---------------------------------------------------------------------------|
B|-16-14---------------------------------------------------------------------|
G|-------15---11-13-13/15-13---------11-13-11-10-----------------------------|
D|-----------------------------11-13-------------11-13-----------------------|
A|---------------------------------------------------------------------------|
E|---------------------------------------------------------------------------|

e|---------------------------------------------------------------------------|
B|-11------------------------------------------------------------------------|
G|----13-11------------------------------------------------------------------|
D|-------------11----13------------------------------------------------------|
A|----------13----13---------------------------------------------------------|
E|---------------------------------------------------------------------------|

BUMMING COWS IS EXEPTIONALLY BETTER THAN BUTTERED SCONES
Comments