Eric Gales - Foxey Lady Chords & Tabs

 

Foxey Lady Chords & Tabs

Eric Gales Chords & Tabs

Version: 1 Type: Tab 0 ratings
1 star 2 stars 3 stars 4 stars 5 stars
comments

Foxey Lady Tab

   
#----------------------------------PLEASE NOTE--------------------------------#
#This file is the author's own work and represents their interpretation of the#
#song. You may only use this file for private study, scholarship, or research.#
#-----------------------------------------------------------------------------#
#-- File created with Instab - http://www.pconline.com/~smcarey/instab.html --#
#-----------------------------------------------------------------------------#

Author/Artist: Eric Gales
Title: Foxey Lady
Album: That's The Way I Am
Transcribed by: krakpot
Email: ehusney@hotmail.com

This is an awesome cover of the Jimi Hendrix classic! I recomend any band to play it like this,
Tuning: C-A-D-G-B-E
I suggest a heavy E string on your guitar for this to sound good.
D = Down stroke
U = Up stroke

Main Riff/Verse:
[ Tab from: http://www.guitartabs.cc/tabs/e/eric_gales/foxey_lady_tab.html ]
---------0--------------------------------------------------------------------|
-------4-4-------4--------4---------------------------------------------------|
-------3-3-------3--------3---------------------------------------------------|
-------2---------2--------2---------------------------------------------------|
-------3---------3--1-----3---------------------------------------------------|
-0--0-------0--0------3-0----3-5-5-3v-----------------------------------------|
       D U

------------------------------------------------------------------------------|
------------------------------------------------------------------------------|
-55555555--3333---------------------------------------------------------------|
-55555555--3333---------------------------------------------------------------|
-33333333--1111---------------------------------------------------------------|
-----------------3-5-5-3v-----------------------------------------------------|
  Chorus
Comments