Eric Clapton - Wonderful Tonight Chords & Tabs

 

Wonderful Tonight Chords & Tabs

Eric Clapton Chords & Tabs

Version: 3 Type: Tab 0 ratings
1 star 2 stars 3 stars 4 stars 5 stars
comments

Wonderful Tonight Tab

THIS SONG IS BEAUTIFUL AND PERFECT IF YOU ARE TRYING TO WOO SOMEONE.
LOL.IT'S VERY SIMPLE AND BASIC TO PLAY, IT'S ONE OF THE FIRST SONGS I TAUGHT
MYSELF (AND I'M ONLY 16!)

INTRO:
E---------3---------------2---------------0---------------2--------------
B-----0-----0---0-----3-----3---3-----1-----1---1-----3-----3---3--------
G---0---0-----0-----2---2-----2-----0---0-----0-----2---2-----2----------
D-------------------------------------------------4----------------------
A---------------------------------3--------------------------------------
E-3---------------2------------------------------------------------------
PLAY THROUGH ONCE FOR INTRO, THEN STRAIGHT INTO VERSE ONE:
[ Tab from: http://www.guitartabs.cc/tabs/e/eric_clapton/wonderful_tonight_tab_ver_3.html ]
E---------3---------------2---------------0---------------2-------
B-----0-----0---0-----3-----3---3-----1-----1---1-----3-----3---3-
G---0---0-----0-----2---2-----2-----0---0-----0-----2---2-----2---  x2
D-------------------------------------------------4---------------  
A---------------------------------3-------------------------------
E-3---------------2-----------------------------------------------
It's late in the ev'nin,
She's wond'rin what clothes to wear,
She puts on her make-up,
And brushes her long blonde hair...
E---------0---------------2-------------------2-----------0-------
B-----1-----1---1-----3-----3---3-----0---------------0-----0---0-
G---0---0-----0-----2---2-----2-----0---0---2---2---0---0-----0---
D-----------------4-----------------------------------------------
A-2---------------------------------------------------------------
E---------------------------------3-------2-------0---------------
...And then she asks me,
Do I look alright...
E---------3---------------2---------------0---------------2-------
B-----0-----0---0-----3-----3---3-----1-----1---1-----3-----3---3-
G---0---0-----0-----2---2-----2-----0---0-----0-----2---2-----2---  
D-------------------------------------------------4---------------  
A---------------------------------3-------------------------------
E-3---------------2-----------------------------------------------
...And I say yes,
You look wonderful tonight.

REPEAT INTRO
VERSE 2, SAME AS ABOVE:
We go to a party,
And everyone turns to see,
This beautiful lady,
That's wond'rin around with me,
And then she asks me,
Do you feel alright,
And I say yes,
I feel wonderful tonight.

INTRO AGAIN
THEN THERES A BRIDGE THAT USES THE SAME TABS AS ABOVE BUT IN A DIFFERENT ORDER.
I CAN'T BE BOTHERED TO WORK THEM OUT BUT IF YOU LISTEN TO THE TRACK, IT SHOULD BE
PRETTY SIMPLE TO WORK OUT.

LAST VERSE, SAME AS BEFORE:
It's time to go home now,
And I've got an aching head,
So I give her the car keys,
And she helps me up to bed,
And then I tell her,
As I turn down the light,
I say my darhlin,
You were wonderful tonight.

THEY YA GO M8S, PRETTY SIMPLE BUT YET SOO LURVELY. HOPE IT WORKS FOR YA!
IT'S MY FIRST TAB, WHEYHEY!
Comments