Eric Clapton - Wonderful Tonight Chords & Tabs

 

Wonderful Tonight Chords & Tabs

Eric Clapton Chords & Tabs

Version: 1 Type: Bass Tab 0 ratings
1 star 2 stars 3 stars 4 stars 5 stars
comments

Wonderful Tonight Bass Tab

Wonderful Tonight By Eric Clapton(Bass Tab) 
Tabbed By Johan Azmir 

Intro(Play Twice)
1 |------------------------------|
2 |5--5-4----------2-0-2/4/7\5---|       (1)
3 |----------5-3----3------------|
4 |------------------------------|

Verse
1 |------------------------------|
2 |5--5-4----------2-0--2-4------|       (2)
3 |----------5-3----3------------|
4 |------------------------------|

1 |------------------------------|
2 |5--5-4----------2-0--0--------|       (3)
3 |----------5-3----3-----0-2-3--|
4 |------------------------------|

1 |------------------------------|
2 |2-0--2--4---5-----4-----2-----|       (4)
3 |-3----------------------------|
4 |------------------------------|

1 |------------------------------|
2 |0---------2-0---2--4----------|       (5)
3 |--0-3------3------------------|
4 |------------------------------|

  Play according to this order:

  (1) x 1 time
  (2) x 1 time
  (3) x 1 time
  (4) x 1 time
  (5) x 1 time
[ Tab from: http://www.guitartabs.cc/tabs/e/eric_clapton/wonderful_tonight_btab.html ]
  Then play this:

1 |------------------------------|
2 |5-2-0------------0--4--5--4--2|
3 |---------0-2-3--3-------------|
4 |------3-----------------------|

1 |------------------------------|
2 |--0---------0-----------2-0---|
3 |----0--3--3-----0-2-3---------|
4 |------------------------------|

  Then follow this order:

  (1) x 2 times
  (2) x 1 time
  (3) x 1 time
  (4) x 1 time

  Followed by this:

1 |------------------------------|
2 |0-------2-0--2-4--5---4---2--0|
3 |--0-3--3----------------------|
4 |------------------------------|

1 |------------------------------|
2 |----2-0------2--4--5----------|
3 |3-----------------------------|
4 |------------------------------|

  Play this once:

  (1) 1 time

  Finish off with this:

1 |------------------------------|
2 |5---5-4----0h2--0---2/4/7\5---|
3 |-------5-3--------------------|
4 |------------------------------|

Any comments or suggestions please email joazmir@rocketmail.com

Comments