Eric Clapton - Tears In Heaven Chords & Tabs

 

Tears In Heaven Chords & Tabs

Eric Clapton Chords & Tabs

Version: 6 Type: Tab 0 ratings
1 star 2 stars 3 stars 4 stars 5 stars
comments

Tears In Heaven Tab

   
TEARS IN HEAVEN
As recorded by Eric Clapton
(From the 2002 Album ERIC CLAPTON UNPLUGGED)


Transcribed by Victor Ochoa

 Words and Music by Eric Clapton and Will Jennings

 

A
x 0 2 2 2 x E/G#
4 x x 4 5 x F#m
2 x x 2 2 x A/E
0 x x 2 2 0 
D/F#
2 x 0 2 3 x E7sus4
0 x 0 2 3 x E7
0 x 0 1 3 x E
0 2 2 1 0 0 
Bm/E
0 x x 4 3 x C#/F
1 x x 1 2 x A7/E
0 x 2 0 2 0 F#7
2 4 2 3 2 x 
F#7sus4
2 4 2 4 2 x Bm7
x 2 4 2 3 x D/E
0 x 4 2 3 x C
x 3 2 0 1 0 
G/B
x 2 0 0 0 3 Am
x 0 2 2 1 0 G5
3 x 0 0 3 x Em7
0 2 0 0 3 0 



        Intro
  Slow Rock Q=80
  N.C.   A           E/G#  F#m           A/E
 1/8    4/4
  Gtr I
|-----||---------------------|-------------------|
|-----||-----2h3p2---5---5-2-|-(2)---2---2---2---|
|-----||---2-------2-4---4-2-|-(2)---2---2---2---|
|-----||---------------------|-------------------|
|-----||-0-------------------|-------------------|
|-0h2-||-------------4-4---2-|-(2)-2---2-0-0---0-|


  D/F#    E7suE7    A
  Gtrs I, II
|-----------------|---------------------||
|-3---3---3---3---|-2---2---2---2-------||
|-2---2---2---1---|-2---2---2---2-------||
|-----------------|---------------------||
|-----------------|-0-0---0---0---------||
|-2-2---2-0-0-0-0-|---------------0h2---||


 Verses 1 & 2
  A           E/G# F#m               A/E
  Gtr I
|--------------------|-----------------------|
|-----2h3p2---5--5-2-|-(2)-----2-----2---2---|
|---2-------2-4--4-2-|-(2)-----2-----2---2---|
|--------------------|-----------------------|
|-0------------------|-----------------------|
|-------------4--4-2-|-(2)-2-----2---0-0---0-|
|
| Gtr II
|--------------------|-------5S7-5-----------|
|-----2h3p2---5--5-2-|-(2)---5S7-5-5S7S5---5-|
|---2-------2-4--4-2-|-(2)---------4S6S4-6---|
|--------------------|-----------------------|
|-0------------------|-----------------------|
|-------------4--4-2-|-(2)-------------------|


    D/F#    A/E         E       A/E Bm/E
||--------------0-----|--------------------------|
||o-3---3---2---2-----|-0---0-----2-----3--------|
||--2---2---2---2-----|-1---1-----2-----4--------|
||--------------------|--------------------------|
||o-------------------|--------------------------|
||--2-2---2-0-0---(0)-|---0-----0---0------0h=2--|
|
||------0-------0-----|--------------------------|
||o-3-------2h3-------|-0---0-----2-----3--------|
||-----------------1--|-----1-----2-----4--------|
||--------------------|--------------------------|
||o-------------------|-------3S4---4S5----------|
||--------------------|---0---------------(0)----|


  A           E/G#  F#m             A/E
|---------------------|---------------------|
|-----2h3p2---5---5-2-|-(2)---2-----2---2---|
|---2-------2-4---4-2-|-(2)---2-----2---2---|
|---------------------|---------------------|
|-0-------------------|---------------------|
|-------------4---4-2-|-(2)-2---2---0-0---0-|
|
|---------------------|-------2-4-4h5-4-2-0-|
|-----2h3p2---5---5-2-|-(2)-----------------|
|---2-------2-4---4-2-|-(2)---2-4-4h6-4-2-1-|
|---------------------|---------------------|
|-0-------------------|---------------------|
|-------------4-4---2-|-(2)-----------------|


  D/F#    A/E         E     A/E  Bm/E
|-------------0-----|-----------------------|
|-3---3---2---2-----|-0---0----2-----3------|
|-2---2---2---2-----|-1---1----2-----4------|
|-------------------|-----------------------|
|-------------------|-----------------------|
|-2-2---2-0-0---(0)-|---0----0---0------0---|
|
|-------------0-----|-----------------------|
|-3---3---2h3-------|-0---0-----------------|
|----------------1--|-----1----2-----4------|
|-4---4-------------|-----------------------|
|-------------------|-------/4---4s5--------|
|-------------------|---0--------------(0)--|


 Choruses 1, 2 & 4
  $
  F#m               C#/F              A7/E              F#7   F#7sus4
|-----------------|-----------------|-----------------|-----------------|
|-2---2---2---2---|-2---2---2---2---|-2---2---2---2---|-------------2---|
|-2---2---2---2---|-1---1---1---1---|-0---0---0---0---|-3---3---4-------|
|-----------------|-----------------|-----------------|-2---2---2-------|
|-----------------|-----------------|-----------------|-----------------|
|-2-2---2---2---0-|-1-1---1---1---1-|-0-0---0---0---0-|-2-2---2---2-----|
|
|-----2-------2---|-----1-------1---|-----0-------0---|-----------------|
|---2-------2---2-|---2---2---2---2-|---0---0---0---0-|-------------2---|
|-2---2---2---2---|-1---1---1---1---|-0---0---0---0---|-3---3---4-------|
|-4-------4-------|-3-------3-------|-2-------2-------|-2---2---2-------|
|-----------------|-----------------|-----------------|-----------------|
|-----------------|-----------------|-----------------|-2-2---2---2-----|


                               To Coda
  Bm7                   D/E
|-----------------|-------------------|
|-----3---3---3---|-----3-3---3-------|
|-----2---2---2---|-----2-2---2-------|
|-----------------|-------------------|
|-2-2---2-2-2-----|-------------------|
|---------------0-|-(0)-0-0-0-0---0h2-|
|
|-----------------|-------------------|
|-----3-------3---|-----3-3---3-------|
|---2-2-2---2-----|-----2-2---2-------|
|-----------------|-------------------|
|-2-------2-------|-------------------|
|---------------0-|-(0)-0-0-0-0---0h2-|


  A           E/G#  F#m               A/E
|---------------------|-----------------------|
|-----2h3p2---5---5-2-|-(2)-----2-----2---2---|
|---2-------2-4---4-2-|-(2)-----2-----2---2---|
|---------------------|-----------------------|
|-0-------------------|-----------------------|
|-------------4-4---2-|-(2)-2-----2---0-0---0-|
|
|---------------------|-------5s7-5-----------|
|-----2h3p2---5---5-2-|-(2)---5s7-5-5s7s5---5-|
|---2-------2-4---4-2-|-(2)---------4s6s4-6---|
|---------------------|-----------------------|
|-0-------------------|-----------------------|
|-------------4-4---2-|-(2)-------------------|


  1.
  D/F#    E7sE74  A
|---------------|---------------------------|
|-3---3---3--3--|-2---2-----2---2---2-------|
|-2---2---2--1--|-2---2-----2---2---2-------|
|---------------|---------------------------|
|---------------|-0-0---0-------0-----------|
|-2-2---2-0--0--|-----------------------0h2-|
|
|---------------|---------------------------|
|-3---3---3--3--|-2-------------2h3p2-------|
|-2---2---2--1--|-2---------2h4-------4-2---|
|---------------|---2---2h4---------------4-|
|---------------|-0-------------------------|
|-2-2---2-0--0--|---------------------------|


              E/G#  F#m               A/E
|---------------------|--------------------------||
|-----2h3p2---5---5-2-|-(2)-----2-----2---2-----o||
|---2-------2-4---4-2-|-(2)-----2-----2---2------||
|---------------------|--------------------------||
|-0-------------------|-------------------------o||
|-------------4-4---2-|-(2)-2-----2---0-0---0----||
|
|---------------------|-------5s7-5--------------||
|-----2h3p2---5---5-2-|-(2)---5s7-5-5s7s5---5---o||
|-----------2-4---4-2-|-(2)---------4s6s4-6------||
|-2-------------------|--------------------------||
|---0-----------------|-------------------------o||
|-------------4---4-2-|-(2)----------------------||


  2.
  D/F#    E7sE74  A
  Gtrs I, II
|---------------|-------------------||
|-3---3---3--3--|-2---2---2---2-----||
|-2---2---2--1--|-2---2---2---2-----||
|---------------|-------------------||
|---------------|-0-0---0---0---0h2-||
|-2-2---2-0--0--|-------------------||


 Bridge
  C       G/B   Am          D/F#      G5      D/F#
|-------------3-0-|-----------------|-----------------|
|-----1-----0---1-|---1---3-3---3---|-----3---3---3---|
|---0---0---0-----|-2---2---2-2-----|-0---0---2---2---|
|-----------------|-----------------|-----------------|
|-3-------2-----0-|-----------------|-----------------|
|-----------------|---------2-----2-|-3-3---3-2-2---2-|


  Em7     D/F#G5    C       G/B  Am            D/F#
|-----------------|-------0--------|-------------------|
|-3---3---3---3-0-|-1---1---3----1-|-(1)-1---------3---|
|-0---0---2---0---|----------------|-------2-0---2-----|
|-----------------|----------------|-------------------|
|-----------------|-3-3-----2-2--0-|-(0)-----0---------|
|-0-0---0-2-2-3---|----------------|-----------2-2---3-|


  G5      D/F#  E         A/E Bm/E
|-----------------|-----------------||
|-3---3---3---3---|-0---0---2---3---||
|-0---0---2-2-----|-1---1---2---4---||
|-----------------|-----------------||
|-----------------|-----------------||
|-3-3---3-2-2---0-|---0---0---0---0-||

[ Tab from: http://www.guitartabs.cc/tabs/e/eric_clapton/tears_in_heaven_tab_ver_6.html ]
 Guitar Solo
  A              E/G#   F#m          A/E
  Gtr I
|-------------------------|------------------|
|-----2h=3p2-------5----2-|-(2)--2---2---2---|
|---2---------2----4----2-|-(2)--2---2---2---|
|-------------------------|------------------|
|-0-----------------------|------------------|
|------------------4----2-|-(2)----2-0-0---0-|
|
| Gtr II
|-----9h10p9-----/14-12-9-|-(9)--------------|
|------------10-----------|------------------|
|-------------------------|------------------|
|-------------------------|------------------|
|-------------------------|------------------|
|-------------------------|------------------|


  D/F#       A               E       A/E Bm/E
|----------0---------------|-------------------|
|-3-----3----2---2h3p2-----|--0----0---2---3---|
|-2-----2----2-----------2-|--1----1---2---4---|
|--------------------------|-------------------|
|------------0-0-----------|-------------------|
|-2-2----------------------|-----0---0---0---0-|
|
|-----/10-10-9s7-5-----7s9-|-(9)-7-7-----------|
|--------------------------|-------------------|
|-----/11----9s7-6-----7s9-|-(9)-7-7-----------|
|--------------------------|-------------------|
|--------------------------|-------------------|
|--------------------------|-------------------|


  A             E/G#     F#m           A/E
|--------------------------|-------------------|
|-----2h=3p2------5----5-2-|-(2)---2---2---2---|
|---2---------2---4----4-2-|-(2)---2---2---2---|
|--------------------------|-------------------|
|-0------------------------|-------------------|
|-----------------4--4---2-|-(2)-2---2-0-0---0-|
|
|-----9h10p9----/14-12---9-|-(9)---------------|
|------------10------------|-------------------|
|--------------------------|-------------------|
|--------------------------|-------------------|
|--------------------------|-------------------|
|--------------------------|-------------------|


  D/F#        A               E       A/E Bm/E
|-----------0---------------|---------------------||
|-3---3-------2---2h3p2-----|--0----0---2---3-----||
|-2---2-------2-----------2-|--1----1---2---4-----||
|---------------------------|---------------------||
|-------------0-0-----------|---------------------||
|-2-2-----------------------|-----0---0---0---0---||
|
|----------10-9s7-5-----7s9-|-(9)-7-7-------------||
|---------------------------|---------------------||
|-----9s11----9s7-6-----7s9-|-(9)-7-7-------------||
|---------------------------|---------------------||
|---------------------------|---------------------||
|---------------------------|---------------------||


 Chorus 3
  F#m               C#/F              A7/E              F#7  F#7sus4
|-----------------|-----------------|-----------------|---------------|
|-2---2-2-2---2---|-2---2---2---2---|-2---2---2---2---|-2--2------2---|
|-2---2-2-2---2---|-1---1---1---1---|-0---0---0---0---|-3--3---4------|
|-----------------|-----------------|-----------------|-2--2---2------|
|-----------------|-----------------|-----------------|---------------|
|-2-2---2---2---2-|-1-1---1---1---1-|-0-0---0---0---0-|-2----2--------|
|
|-----2-------2---|-----1-------1---|-----0-------0---|---------------|
|---2-------2---2-|---2---2---2---2-|---0---0---0---0-|-2--2------2---|
|-2---2---2---2---|-1---1---1---1---|-0---0---0---0---|-3--3---4------|
|-4-------4-------|-3-------3-------|-2-------2-------|-2--2---2------|
|-----------------|-----------------|-----------------|---------------|
|-----------------|-----------------|-----------------|-2----2--------|


  Bm7           D/E                     A           E/G#  F#m
  Gtrs I, II
|-----------------|-------------------|---------------------|
|-----3---3---3---|-----3-3---3-------|-----2h3p2---5---5-2-|
|-----2---2---2---|-----2-2---2-------|---2-------2-4---4-2-|
|-----------------|-------------------|---------------------|
|-2-2---2-2-2-----|-------------------|-0-------------------|
|---------------0-|-(0)-----0-----0h2-|-------------4-4---2-|


                A/E       D/F#    E7sE74  A
  Gtr I
|-----------------------|---------------|----------------------------||
|-(2)-----2-----2---2---|-3-3-3---3--3--|-2---2-----2-------2--------||
|-(2)-----2-----2---2---|-2-2-2---2--1--|-2---2-----2-------2--------||
|-----------------------|---------------|----------------------------||
|-----------------------|---------------|-0-0---0-------0------------||
|-(2)-2-----2---0-0---0-|-2-2---2-0--0--|-----------------------0h2--||
|
| Gtr II
|-------5S7-5-----------|---------------|----------------------------||
|-(2)---5S7-5-5S7S5---5-|-3-3-3---3--3--|-2-------------2h3p2--------||
|-(2)---------4S6S4-6---|-2-2-2---2--1--|-2---------2h4-------4-2----||
|-----------------------|---------------|---2---2h4---------------4--||
|-----------------------|---------------|-0--------------------------||
|-(2)-------------------|-2-2---2-0--0--|----------------------------||


 Verse 3
  A        E/GF#m             A/E
|---------------|---------------------|
|-----2----5--2-|-(2)---2-----2---2---|
|---2---2--4--2-|-(2)---2-----2---2---|
|---------------|---------------------|
|-0-------------|---------------------|
|----------4--2-|-(2)-2---2---0-0---0-|
|
|---------------|-------2-4-4h5-4-2-0-|
|-----2----5--2-|-(2)-----------------|
|---2---2--4--2-|-(2)---2-4-4h6-4-2-1-|
|---------------|---------------------|
|-0-------------|---------------------|
|----------4--2-|-(2)-----------------|


  D/F#    A/E         E     A/E  Bm/E
|-------------0-----|------------------------|
|-3---3---2---2-----|-0---0----2-----3-------|
|-2---2---2---2-----|-1---1----2-----4-------|
|-------------------|------------------------|
|-------------------|------------------------|
|-2-2---2-0-0---(0)-|---0----0---0------0h=2-|
|
|-------------0-----|------------------------|
|-3---3---2h3-------|-0---0------------------|
|----------------1--|-----1----2-----4-------|
|-4---4-------------|------------------------|
|-------------------|-------/4---4s5---------|
|-------------------|---0--------------(0)---|


  A           E/G# F#m               A/E
|--------------------|-----------------------|
|-----2h3p2---5--5-2-|-(2)-----2-----2---2---|
|---2-------2-4--4-2-|-(2)-----2-----2---2---|
|--------------------|-----------------------|
|-0------------------|-----------------------|
|-------------4--4-2-|-(2)-2-----2---0-0---0-|
|
|--------------------|-------5S7-5-----------|
|-----2h3p2---5--5-2-|-(2)---5S7-5-5S7S5---5-|
|---2-------2-4--4-2-|-(2)---------4S6S4-6---|
|--------------------|-----------------------|
|-0------------------|-----------------------|
|-------------4--4-2-|-(2)-------------------|


                                D.S. al Coda
  D/F#    A/E         E       A/E Bm/E
|-------------0-----|-------------------------||
|-3---3---2---2-----|-0---0-----2-----3-------||
|-2---2---2---2-----|-1---1-----2-----4-------||
|-------------------|-------------------------||
|-------------------|-------------------------||
|-2-2---2-0-0---(0)-|---0-----0---0------0----||
|
|-----0-------0-----|-------------------------||
|-3-------2h3-------|-0---0-----2-----3-------||
|----------------1--|-----1-----2-----4-------||
|-------------------|-------------------------||
|-------------------|-------3S4---4S5---------||
|-------------------|---0---------------(0)---||


 Outro
  &
  A           E/G# F#m           A/E
  Gtrs I, II
|--------------------|-------------------|
|-----2h3p2---5--5-2-|-(2)---2---2---2---|
|---2-------2-4--4-2-|-(2)---2---2---2---|
|--------------------|-------------------|
|-0------------------|-------------------|
|-------------4--4-2-|-(2)-2---2-0-0---0-|


  Bm7           D/E                     A           E/G# F#m
|-----------------|-------------------|--------------------|
|-3---3---3---3-3-|-(3)-3-3---3-------|-----2h3p2---5--5-2-|
|-2---2---2---2-2-|-(2)-2-2---2-------|---2-------2-4--4-2-|
|-----------------|-------------------|--------------------|
|-2-2---2-2-2-----|-------------------|-0------------------|
|---------------0-|-(0)-----0-----0h2-|-------------4----2-|


                        H.=H
                A/E       D/F#    E7sE74  A
  Gtr I
                                                                      ~
|-----------------------|---------------|---------------------------------*|
|-(2)-----2-----2---2---|-3---3---3--3--|-------2--3--2h3p2-0-------5-5---*|
|-(2)-----2-----2---2---|-2---2---2--1--|-----2---------------2-4s6-------*|
|-----------------------|---------------|---2-----------------------------*|
|-----------------------|---------------|-0-------------------------------*|
|-(2)-2-----2---0-0---0-|-2-2---2-0--0--|---------------------------------*|
|
| Gtr II
|-------5s7-5-----------|---------------|---------------------------------*|
|-(2)---5s7-5-5s7s5---5-|-3---3---3--3--|---------------------------------*|
|-(2)---------4s6s4-6---|-2---2---2--1--|---2-----(2)---------------------*|
|-----------------------|---------------|---------------------------------*|
|-----------------------|---------------|-0-------------------------------*|
|-(2)-------------------|-2-2---2-0--0--|---------------------------------*|
Comments