Eric Clapton - Tears In Heaven Chords & Tabs

 

Tears In Heaven Chords & Tabs

Eric Clapton Chords & Tabs

Version: 2 Type: Tab 0 ratings
1 star 2 stars 3 stars 4 stars 5 stars
comments

Tears In Heaven Tab

   
Song: Tears in Heaven
Performer: Eric Clapton
Album: Unplugged
Tabbed by:  Alejandro D'Brot 
	    alexd@terra.com


p= pull-off 
h= hammer-on 
/= slide up
\= slide down 
~= vibrato
^= bend 
()= ghost note (play softly)
x= muted note or chord

Tuning: Standard 



[ intro ]

 I Guitar
e|---------------|-----------------------|-----------------|------------------| 
B|--------2h3p2--|-5--5-2-----2---2---2--|-3---3---3---3---|-2----2--------2--|
G|------2-2----2-|-4--4-2-----2---2---2--|-2---2---2---1---|-2--2-2-2----2-2--|
D|---------------|-6----4-----4---2---2--|-----------------|------------------|
A|----0----------|-----------------------|-----------------|-0---------0------|
E|-0h2-----------|-4----2---2---2-0-0---0|-2-2---2-0-0--(0)|------------------|




[ verse ]
						    
 I Guitar					     
 "Would you know..." 					     
e|---------------|-----------------------|-------------0----|-----------------|  
B|--------2h3p2--|-5--x-------2---2---2--|-3---3---2h3-----0|---0-----2-----3-|
G|------2-2----2-|-4--x-2-----2---2---2--|-2---2---------1--|---1-----2-----4-|
D|---------------|-6--x-4-----4---2---2--|------------------|-----------------|
A|----0----------|-----------------------|------------------|-----2/4---4/5---|
E|-0h2-----------|-4----2-----2-2-0-0-0-0|-2-2---2-0--------|-0---------------|
         						      ^ If you replace this with the second
   								fret on the fifth string, it sounds
								even better.
 II Guitar ( 1st II Guitar 'solo' )
e|---------------|-----------/7p5-/2p0---0---|< these slides don't start  
B|---------------|-----------/5---/2p0-2---3-|< from a definte fret
G|---------------|---------------------------|
D|---------------|---------------------------|
A|---------------|---------------------------|
E|---------------|---------------------------|


 I Guitar
e|------------|-----------------------|-------------0----|-----------------| 
B|-2---2h3p2--|-5--5-2-----2---2---2--|-3---3---2h3-----0|---0-----2-----3-|
G|---2-2----2-|-4--4-2-----2---2---2--|-2---2---------1--|---1-----2-----4-|
D|------------|-6----------4---2---2--|------------------|-----------------|
A|------------|-----------------------|------------------|-----2/4---4/5---|
E|-0----------|-4----2---2---2-0-0-0-0|-2-2---2-0--------|-0---------------|
							   ^ See indication above.

 II Guitar ( 2nd II Guitar 'solo' )
e|---------------|-----------2-4-4h54-2-|0-|		       
B|---------------|-----------2-2-2--2-2-|0-|
G|---------------|----------------------|--|
D|---------------|----------------------|--|
A|---------------|----------------------|--|
E|---------------|----------------------|--|




[ other part ]
 
 I Guitar
  "I must be strong.."
e|--------2----------2----|-------1-----------1----|-------0------------0--| 
B|-2--2-----(2)---2-------|-2--2-----2--2--2-----2-|(0)-0----(0)--(0)0-----|
G|-2--2--(2)------2-(2)---|-1--1--1-----1-----1----|(0)-0---------(0)0-----|
D|-4----------------------|-3----------------------|(2)-----------(2)------|
A|------------------------|------------------------|-----------------------|
E|-2--------------2-----2-|-1--1-----1-----1-----1-|-0---------------------|
                            ^ you need super human strength to make this chord 
                              sound right, so you can just leave out the 3

I Guitar
e|---------------|----------------------------| 
B|------------2--|-----3--------3----3-3---3--|
G|-3--3---4---3--|---2-2-2----2-2----2-2---2--|
D|-2--2---2------|----------------------------|
A|----1----------|-2--------2-----------------|
E|-2----2---2----|-----------------0-----0----|


...play: 'intro' w/ 1st II Guitar solo + this at the end:

 II Guitar (3rd II Guitar solo)
e|-------------|-------------|
B|---------2h3-|-2-----------|
G|-----2h4-----|---4-2-------|
D|-2h4---------|-------4-2---|
A|-------------|-------------|
E|-------------|-------------|


...then play: 'verse' 
              'other part'
	      'intro' w/ 1st II Guitar solo



[ bridge ]
[ Tab from: http://www.guitartabs.cc/tabs/e/eric_clapton/tears_in_heaven_tab_ver_2.html ]
 I Guitar
 "Time can bring you down.."
e|-------------------------|------------------------------------|----------|
B|---------5------3----1-1-|------3---(3)--3------3--(0)----0---|-3----3---|
G|---------5------4----2-2-|--2-2-2-2-(0)0-0------2--(0)(0)-0---|-2----4---|
D|-------5------5----------|--4-------(0)------------(2)--------|----------|
A|-0h2-3------2------0-----|------------------------------------|----------|
E|-------------------------|--2--------3(3)---2-2---2-0--0----0-|-2--2-3---|

e|-------------------------|-----------------------------|---------------|
B|---------5------3----1-1-|------3---(3)--0--3---3--(0)-|-0-------------|
G|---------5------4----2-2-|--2-2-2-2-(0)0-0--2---2--(1)-|-1-----2-----4-|
D|-------5------5----------|--4-------(0)-----4------(2)-|-2-----4-----5-|
A|-0h2-3------2------0-----|-----------------------------|--(2/4)-(4/5)--|
E|-------------------------|--2--------3(3)---2-2-----0--|---------------|



[ solo ]

 I Guitar:
e|--------------------------|--------------------------|-----------------------------|------|
B|-----------------5------2-|----------2-----2-----3---|--3-------2p0--2h3p2p0---0-0-|-2--3-|
G|---2h3p2---------4------2-|----------2-----2-----2---|--2------------------------1-|-2--4-|
D|-2-------2-------6------4-|----------2-----2---------|-----------------------------|------|
A|--------------------------|--------------------------|-----------------------------|------|
E|-----------------4------2-|----------0-----0-----2---|--2-----------------------0--|0--0--|
                                                                                
 II Guitar:                                                                     
e|---9h10p9----10h12-12---9-|--------------------------|--9h1010--9\7---5---7/9--7-7~|------|       
B|--10-----10--12-----------|--------------------------|-10---10-10------------------|------|  
G|--------------------------|--------------------------|----------9\7---6---7/9--7-7~|------|  
D|--------------------------|--------------------------|-----------------------------|------|  
A|--------------------------|--------------------------|-----------------------------|------|  
E|--------------------------|--------------------------|-----------------------------|------|  


 I Guitar:
e|-------------------------|--------------------------|-----------------------------|------|
B|--2h3p2---------5---5--2-|----2-----2-----2-----3---|--3-------2p0--2h3p2p0---0-0-|-2--3-|
G|---------2------4---4--2-|----2-----2-----2-----2---|--2------------------------1-|-2--4-|
D|----------------6------4-|----4-----2-----2---------|-----------------------------|------|
A|-------------------------|--------------------------|-----------------------------|------|
E|----------------4------2-|----2-----0-----0-----2---|--2-----------------------0--|0--0--|
                   
 II Guitar:        
e|--9h10p9------10h12-12-9-|--------------------------|--9h1010--9\7---5---7/9--7-7~|------|     
B|-10-----10----12---------|--------------------------|-10---10-10------------------|------| 
G|-------------------------|--------------------------|----------9\7---6---7/9--7-7~|------| 
D|-------------------------|--------------------------|-----------------------------|------| 
A|-------------------------|--------------------------|-----------------------------|------| 
E|-------------------------|--------------------------|-----------------------------|------| 


..then play: 'other part'
	     'intro' w/ 1st II Guitar solo + 
                        3rd II Guitar solo at the end
	     'verse'
	     'other part'
	     
...then play this:

 I Guitar
e|---------------|-----------------------|----------------------------|
B|--------2h3p2--|-5--5-2-----2---2---2--|-----3--------3----3-3---3--|
G|------2-2----2-|-4--4-2-----2---2---2--|---2-2-2----2-2----2-2---2--|
D|---------------|-6----4-----4---2---2--|----------------------------|
A|----0----------|-----------------------|-2--------2-----------------|
E|-0h2-----------|-4----2---2---2-0-0---0|-----------------0-----0----|

...and finally end with this:

 I Guitar + 1st II Guitar solo
e|---------------|-----------------------|----------------------|
B|--------2h3p2--|-5--5-2-----2---2---2--|-3-----3-----3----3---|
G|------2-2----2-|-4--4-2-----2---2---2--|-2-----2-----2----1---|
D|---------------|-6----4-----4---2---2--|-------------2----2---|
A|----0----------|-----------------------|----------------------|
E|-0h2-----------|-4----2---2---2-0-0---0|-2--2-----2--0---(0)--|

e|-------------------------------------|
B|-------------2--3-2h3p2-2-----------5|
G|---------2-----------------4-2-4/6---|
D|-----2-------------------------------|
A|-0-----------------------------------|
E|-------------------------------------|

...
Comments