Eric Clapton - Sunshine Of Your Love Chords & Tabs

 

Sunshine Of Your Love Chords & Tabs

Eric Clapton Chords & Tabs

Version: 5 Type: Tab 0 ratings
1 star 2 stars 3 stars 4 stars 5 stars
comments

Sunshine Of Your Love Tab

   
this is very accurate, might be the best version of it

corrections go to mullenman223@yahoo.com

Gtr I (E A D G B E) - 'Eric Clapton Rhythm'
Gtr II (E A D G B E) - 'Eric Clapton Lead'

 Intro
  Q=114
 4/4
  Gtr I
                                    ~
   E  E  E  E E  E E  E   E  E E  E Q   E  E
|-----------------------|--------------------|
|-----------------------|--------------------|
|-----------------------|--------------------|
|-12-12-10-12-----------|--------------------|
|---------------12---11-|---10------8--------|
|-----------------------|--------10----10-10-|


                                    ~
   E  E  E  E E  E E  E   E  E E  E Q   q
|-----------------------|------------------|
|-----------------------|------------------|
|-----------------------|------------------|
|-12-12-10-12-----------|------------------|
|---------------12---11-|---10------8------|
|-----------------------|--------10----10--|


                                     ~~
   E  E  E  E E  E E  E   E  E E  E  Q   E E
|-----------------------|--------------------|
|-----------------------|--------------------|
|-11-11--9-11-----------|--------12-10-------|
|-12-12-10-12-----------|--------12-----12---|
|-12-12-10-12---12---11-|---10---------------|
|-10-10--8-10-----------|--------------------|


                                     ~~
   E  E  E  E E  E E  E   E  E E  E  Q   E E
|-----------------------|---------------------|
|-----------------------|---------------------|
|-11-11--9-11-----------|--------12-10--------|
|-12-12-10-12-----------|--------12-----12----|
|-12-12-10-12---12---11-|---10----------------|
|-10-10--8-10-----------|---------------------|


   Verse
    $
                                        ~~
      E  E  E  E E  E E  E   E  E E  E  Q   E E
||-------------------------|--------------------|
||o------------------------|--------------------|
||---11-11--9-11-----------|--------12-10-------|
||---12-12-10-12-----------|--------12-----12---|
||o--12-12-10-12---12---11-|---10---------------|
||---10-10--8-10-----------|--------------------|


                                     ~~
   E  E  E  E E  E E  E   E  E E  E  Q   E E
|-----------------------|-------------------|
|-----------------------|-------------------|
|-11-11--9-11-----------|--------12-10------|
|-12-12-10-12-----------|--------12-----12--|
|-12-12-10-12---12---11-|---10--------------|
|-10-10--8-10-----------|-------------------|


                                     ~~
   E  E  E  E E  E E  E   E  E E  E  Q   E E
|-----------------------|--------------------|
|-----------------------|--------------------|
|-11-11--9-11-----------|--------12-10-------|
|-12-12-10-12-----------|--------12-----12---|
|-12-12-10-12---12---11-|---10---------------|
|-10-10--8-10-----------|--------------------|


                                     ~~
   E  E  E  E E  E E  E   E  E E  E  Q   E E
|-----------------------|---------------------|
|-----------------------|---------------------|
|-11-11--9-11-----------|--------12-10--------|
|-12-12-10-12-----------|--------12-----12----|
|-12-12-10-12---12---11-|---10----------------|
|-10-10--8-10-----------|---------------------|


   E  E  E  E E  E E  E   E  E E  E E +E       E  E
|-----------------------|---------------------------|
|-12-12-10-12-----------|---------------------------|
|-12-12-10-12-----------|---------------------------|
|-12-12-10-12---12---11-|---10------8-(8)b8.5-------|
|-10-10--8-10-----------|--------10-----------10-10-|
|-----------------------|---------------------------|


   E  E  E  E E  E E  E   E  E E  E S E S  E  E
|-----------------------|-----------------------|
|-12-12-10-12-----------|-----------------------|
|-12-12-10-12-----------|-----------------------|
|-12-12-10-12---12---11-|---10------8-8-8-------|
|-10-10--8-10-----------|--------10-------10----|
|-----------------------|--------------------10-|


  Gtr I
                                     ~~
   E  E  E  E E  E E  E   E  E E  E  Q   E  E
|-----------------------|---------------------|
|-----------------------|---------------------|
|-11-11--9-11-----------|---------------------|
|-12-12-10-12-----------|---------------------|
|-12-12-10-12---12---11-|---10-------8--------|
|-10-10--8-10-----------|--------10-----10-10-|
|
| Gtr II
|                                    ~~
|                         E  E E  E  Q   E  E
|-----------------------|---------------------|
|-----------------------|---------------------|
|-----------------------|--------12-10--------|
|-----------------------|--------12-----12----|
|-----------------------|---10----------------|
|-----------------------|---------------------|


                                      To Coda
                                     ~~
   E  E  E  E E  E E  E   E  E E  E  Q   E E
|-----------------------|---------------------||
|-----------------------|---------------------||
|-11-11--9-11-----------|-----------10--------||
|-12-12-10-12-----------|---------------12----||
|-12-12-10-12---12---11-|---10----------------||
|-10-10--8-10-----------|--------10-----------||
|
|                                    ~~
|  E  E  E  E E  E E  E   E  E E  E  Q   E E
|-----------------------|---------------------||
|-----------------------|---------------------||
|-11-11--9-11-----------|--------12-10--------||
|-12-12-10-12-----------|--------12-----12----||
|-12-12-10-12---12---11-|---10----------------||
|-10-10--8-10-----------|---------------------||


 Chorus
  e. S q  H      Q  Q  Q  Q    e. S q  H      Q  Q  Q  Q
|--------------|-------3-----|--------------|-------3------|
|-2--2-2-------|-5-----3-----|-2--2-2-------|-5-----3------|
|-2--2-2-------|-5-----4-----|-2--2-2-------|-5-----4------|
|-2--2-2-------|-5-----5-----|-2--2-2-------|-5-----5------|
|-0--0-0-------|-3-----5-----|-0--0-0-------|-3-----5------|
|--------------|-------3-----|--------------|-------3------|


  e. S q  H      Q  Q  Q  Q    E. S E. S E. S E. S
|--------------|-------3-----|---------------------|
|-2--2-2-------|-5-----3-----|-2--2-2--2-2--2-2--2-|
|-2--2-2-------|-5-----4-----|-2--2-2--2-2--2-2--2-|
|-2--2-2-------|-5-----5-----|-2--2-2--2-2--2-2--2-|
|-0--0-0-------|-3-----5-----|-0--0-0--0-0--0-0--0-|
|--------------|-------3-----|---------------------|


  1.
                                                           ~~
  S E. E. S E E E   E    E  E  E  E E  E E  E   E  E E  E  Q   E E
|---------------------|-----------------------|---------------------||
|-2-2--2--2-2-2-2-----|-----------------------|--------------------o||
|-2-2--2--2-2-2-2-----|-11-11--9-11-----------|--------12-10--------||
|-2-2--2--2-2-2-2-----|-12-12-10-12-----------|--------12-----12----||
|-0-0--0--0-0-0-0-----|-12-12-10-12---12---11-|---10---------------o||
|-----------------/10-|-10-10--8-10-----------|---------------------||


                               Guitar Solo
  2.
  Gtr II
                                         ~~~~
  H         Q  E  A      +E      A      +W
|----------------------------||--------------------------------|
|----------------------------||--------------------------------|
|----------------12b14==(12)-||-12b14==(12)--------------------|
|----------------------------||--------------------------------|
|----------------------------||--------------------------------|
|----------------------------||--------------------------------|
|
| Gtr I
| E. S E. S Q  E          E              E   E  E  E E  E E  E
|----------------------------||--------------------------------|
|-2--2-2--2-2--2-------------||--------------------------------|
|-2--2-2--2-2--2-------------||---------11--11--9-11-----------|
|-2--2-2--2-2--2-------------||---------12--12-10-12-----------|
|-0--0-0--0-0--0-------------||---------12--12-10-12---12---11-|
|-----------------------/10--||---------10--10--8-10-----------|


                               |---------3---------|
  E  E  A      +E   E  A      +Q   A       +Q      q
|--------------------------------------------------------|
|------------------12------------------------------------|
|---12-12b14==(12)----12b14==(12)-12pb14==(12)----12-----|
|--------------------------------------------------------|
|--------------------------------------------------------|
|--------------------------------------------------------|
|
|                              ~~~~
| E  E          E   E          Q                E     E
|--------------------------------------------------------|
|--------------------------------------------------------|
|--------------------------------------------------------|
|--------------------------------------------------------|
|---10-------------------------8-------------------------|
|------------------10--------------------------10----10--|


            ~~~~
   a       +H.               Q
|---------------------------------|
|---------------------------------|
|-12pb14==(12)--------------------|
|---------------------------------|
|---------------------------------|
|---------------------------------|
|
|           E   E  E  E E  E E  E
|---------------------------------|
|---------------------------------|
|----------11--11--9-11-----------|
|----------12--12-10-12-----------|
|----------12--12-10-12---12---11-|
|----------10--10--8-10-----------|


                                                ~~
  E A     +E  +E  +S  S E     E  E       +E     W
|--------------------------------------------|------------------------|
|--------------------------------9b10====(9)-|------------------------|
|---9b11==(9)-(9)r(9)p7-9-----7--9b10.5==(9)-|--7---------------------|
|--------------------------------------------|------------------------|
|--------------------------------------------|------------------------|
|--------------------------------------------|------------------------|
|
| E        E   E   E    Q        E        E     E  E  E  E E  E E  E
|--------------------------------------------|------------------------|
|--------------------------------------------|------------------------|
|--------------------------------------------|-11-11--9-11------------|
|--------------------------------------------|-12-12-10-12------------|
|---------10------------8b8.5----------------|-12-12-10-12---12---11--|
|-----------------10------------10-------10--|-10-10--8-10------------|


                                                 |------3-------|
  E  S S S S  S       +S  +E.         +S        +Q     a       +E
|------------------------------------------------------------------|
|-------------9b10====(9)-(9)r========(9)b10====(9)----9b10====(9)-|
|--------7h9--9b10.5==(9)-(9)r========(9)b10.5==(9)----9b10.5==(9)r|
|----7h9-----------------------------------------------------------|
|------------------------------------------------------------------|
|------------------------------------------------------------------|
|
| E  E   E    E            E      +E             E   E
|------------------------------------------------------------------|
|------------------------------------------------------------------|
|------------------------------------------------------------------|
|------------------------------------------------------------------|
|---10---------------------8b8.5==(8)------------------------------|
|------------10---------------------------------10--10-------------|

[ Tab from: http://www.guitartabs.cc/tabs/e/eric_clapton/sunshine_of_your_love_tab_ver_5.html ]
            ~~~
  +E   S S  H.                E  E      +E.         +S   A      +Q    A        +Q
|---------------------------|---------------------------------------------------------|
|---------------------------|---------------------------------------------------------|
|-(9)--7h9p=7---------------|---10b12==(10)b14=====(10)-10b14==(10)--10b13.5==(10)----|
|---------------------------|---------------------------------------------------------|
|---------------------------|---------------------------------------------------------|
|---------------------------|---------------------------------------------------------|
|
|  E   E    E   E E  E E  E   E  E       E       E               Q              E   E
|---------------------------|---------------------------------------------------------|
|---------------------------|---------------------------------------------------------|
|-11--11----9--11-----------|---------------------------------------------------------|
|-12--12---10--12-----------|---------------------------------------------------------|
|-12--12---10--12---12---11-|---10-------------------------------8--------------------|
|-10--10----8--10-----------|-------------------10-----------------------------10--10-|


                          ~~~~
   A      +Q      A      +H           E  E
|------------------------------------------|
|------------------------------------------|
|-10b12==(10)----10b12==(10)---------10--7-|
|------------------------------------------|
|------------------------------------------|
|------------------------------------------|
|
|          E   E          E   E E  E  E  E
|------------------------------------------|
|---------12--12---------10--12------------|
|---------12--12---------10--12------------|
|---------12--12---------10--12---12----11-|
|---------10--10----------8--10------------|
|------------------------------------------|


                 ~
         |--3--|                                                |------3-------|
  A     +Q     E H               A     +E   E    Q     S E    S E E    A      +E  +E   E
|---------------------------------------------|------------------------------------------|
|---------------------------------------------|------------------------------------------|
|-9b11==(9)------7---------------9b11==(9)----|---------------7h9------9pb10==(9)-(9)----|
|--------------9------------------------------|--------7h9-----------------------------9-|
|---------------------------------------------|------------------------------------------|
|---------------------------------------------|------------------------------------------|
|
|        E   E   E  E E      +E         E   E    E  E  E    E   E    E             E   E
|---------------------------------------------|------------------------------------------|
|---------------------------------------------|-12-12-10---12----------------------------|
|---------------------------------------------|-12-12-10---12----------------------------|
|-----------10--------8b8.5==(8)--------------|-12-12-10---12-------12----------------11-|
|------------------10------------------10--10-|-10-10--8---10----------------------------|
|---------------------------------------------|------------------------------------------|


  |-----3-----|  |---3----|     |---3----|
  E E        +E  E A     +Q     E A     +Q   E  E
|-------------------------------------------------|
|-------------------------------------------------|
|-7-9b11=====(9)---9b12==(9)------9b11==(9)--7--9-|
|-------------------------------------------------|
|-------------------------------------------------|
|-------------------------------------------------|
|
| E        E     E            E Q            E  E
|-------------------------------------------------|
|-------------------------------------------------|
|-------------------------------------------------|
|-------------------------------------------------|
|---------10--------------------8-----------10----|
|----------------------------10----------------10-|


           ~~~                      ~~~
   S S  E  H.                Q      Q     E  E  E   E
|--------------------------|---------------------------|
|--------------------------|------/13------------------|
|----7h=9--7---------------|------/14----12-10-11------|
|--9-----------------------|-----------------------12--|
|--------------------------|---------------------------|
|--------------------------|---------------------------|
|
|  E    E  E   E E  E E  E   E  E   E  E  Q     E   E
|--------------------------|---------------------------|
|--------------------------|---------------------------|
|-11---11--9--11-----------|---------------------------|
|-12---12-10--12-----------|---------------------------|
|-12---12-10--12---12---11-|---10---------8------------|
|-10---10--8--10-----------|----------10-------10-/10--|


   ~~                   ~~
   Q     E  E  Q     A  Q       Q    E  E E  A      +E   E  E
|----------------------------|-------x-10---------------------|
|----------------------------|--------------------------------|
|-10----------------10h11----|-11-----------10b11==(10)----10-|
|-------12p10-12-------------|--------------------------12----|
|----------------------------|--------------------------------|
|----------------------------|--------------------------------|
|
|  E  E  E  E  E  E     E  E    E  E E  E Q              Q
|----------------------------|--------------------------------|
|----------------------------|--------------------------------|
|-11-11--9-11----------------|--------------------------------|
|-12-12-10-12----------------|--------------------------------|
|-12-12-10-12----12-------11-|----10------8-------------------|
|-10-10--8-10----------------|---------10---------------10----|


  A
  Gtr I
   E.         S q   H
   |          | |
   /          / /

           ~~~~                       ~~
   E      +Q.       E  A      +E   E  E
|---------------------------------------|
|------------------13-------------------|
|-12b14==(12)---------12b14==(12)-12-10-|
|---------------------------------------|
|---------------------------------------|
|---------------------------------------|
|
|  W
|---------------------------------------|
|---------------------------------------|
|---------------------------------------|
|---------------------------------------|
|---------------------------------------|
|---------------------------------------|


  C/G           G
    Q    Q       Q        Q
    |            |
    /            /

    ~~~~
   +Q    E E  A  E  E  A  E  E
|------------------------------|
|------------------13----------|
|-(10)--12---12s14----14s12-10-|
|------------------------------|
|------------------------------|
|------------------------------|


         A
           E.    S  q                       H
           |     |  |
           /     /  /

                                                              ~~
                                |---3----|
   A      +E   E    E  A       +S   +S   S  E  A      +E   E  E
|------------------10-------------------------------------------|
|-------------10------------------------------------------------|
|-12b14==(12)---------12pb14==(12)r(12)p10----10b11==(10)-------|
|------------------------------------------12-------------12----|
|------------------------------------------------------------12-|
|---------------------------------------------------------------|


  C                    G
    Q       Q           Q        Q
    |                   |
    /                   /

    ~~~~
   +Q    A  E  A  E  A  E  A  E  E  E
|-------------------------------------|
|-------------------------------10-12-|
|----------------------10----10-10-12-|
|----------10----10-10h12-10h12-------|
|-(12)--10h12-10h12-------------------|
|-------------------------------------|


  A
   E.    S  q           H
   |     |  |
   /     /  /

      ~~~
   S  E.    S  S  S  S  S  S  a  E  a      +E   S  S
|----------------------------------------------------|
|----------13----13-13h15-13-------------------------|
|-12s14-------14-------------14s12-10b11==(10)-12p10-|
|----------------------------------------------------|
|----------------------------------------------------|
|----------------------------------------------------|


  C              G
   Q       Q      Q              Q
   |              |
   /              /

      ~~~~~~~~
   S  E.  +E   E  E  A      +E   E  E
|-------------------------------------|
|-------------13----15b17==(15)-13-15-|
|-12s14--(14)----14-------------------|
|-------------------------------------|
|-------------------------------------|
|-------------------------------------|


  A
  E.    S  E.       S          E.     S  E.    S
  |     |  |        |          |      |  |     |
  /     /  /        /          /      /  /     /

  E   E    S  S  S  S  A      +E   S  S  E   E
|----13------------------------------------------|
|----13---15p13----------------------------------|
|---------------14s12-10b11==(10)-------12--10---|
|---------------------------------12-12----------|
|------------------------------------------------|
|------------------------------------------------|


  Gtr II
   a  E   S  S  +S   S  a  E  a      +E     S  S  e  S  S
|---------------------------------------------------------|
|--------13-13-(13)-13------------------------------------|
|-12s14--14-14-(14)-14-14s12-10b11==(10)------------------|
|------------------------------------------12p10----10h12-|
|------------------------------------------------12-------|
|---------------------------------------------------------|
|
| Gtr I
|     E.     S   Q                    S  S  S  S  E  E
|---------------------------------------------------------|
|-----2------2---2--------------------2--2--2--2--2-------|
|-----2------2---2--------------------2--2--2--2--2-------|
|-----2------2---2--------------------2--2--2--2--2-------|
|-----0------0---0--------------------0--0--0--0--0-------|
|---------------------------------------------------10----|


   q     Q    H
|-----------------------|
|-----------------------|
|-----------------------|
|-----------------------|
|-----------------------|
|-10--------------------|
|
|  E  E  E  E E  E E  E
|-----------------------|
|-----------------------|
|-11-11--9-11-----------|
|-12-12-10-12-----------|
|-12-12-10-12---12---11-|
|-10-10--8-10-----------|


                                                    D.S. al Coda
  Gtr I
            ~                                             ~~
  E  E E  E Q   E  E    E  E  E  E E  E E  E   E  E E  E  Q   E E
|--------------------|-----------------------|--------------------||
|--------------------|-----------------------|--------------------||
|--------------------|-11-11--9-11-----------|--------12-10-------||
|--------------------|-12-12-10-12-----------|--------12-----12---||
|---10------8--------|-12-12-10-12---12---11-|---10---------------||
|--------10----10-10-|-10-10--8-10-----------|--------------------||


   Out-Chorus
    &
    e. S q  H      Q  Q  Q  Q   5x     E. S E. S E. S E. S  5x
||---------------|-------3------||-||-----------------------||
||o-2--2-2-------|-5-----3-----o||-||o-2--2-2--2-2--2-2--2-o||
||--2--2-2-------|-5-----4------||-||--2--2-2--2-2--2-2--2--||
||--2--2-2-------|-5-----5------||-||--2--2-2--2-2--2-2--2--||
||o-0--0-0-------|-3-----5-----o||-||o-0--0-0--0-0--0-0--0-o||
||---------------|-------3------||-||-----------------------||


  E E E. S E E E. S   E. S E. S S S E +S  S E   E. S E E +S  S E E. S
|-------------------|-------------------------|------------------------*|
|-2-2-2--2-2-2-2--2-|-2--2-2--2-2-2-2-(2)-2-2-|-2--2-2-2-(2)-2-2-2--2--*|
|-2-2-2--2-2-2-2--2-|-2--2-2--2-2-2-2-(2)-2-2-|-2--2-2-2-(2)-2-2-2--2--*|
|-2-2-2--2-2-2-2--2-|-2--2-2--2-2-2-2-(2)-2-2-|-2--2-2-2-(2)-2-2-2--2--*|
|-0-0-0--0-0-0-0--0-|-0--0-0--0-0-0-0-(0)-0-0-|-0--0-0-0-(0)-0-0-0--0--*|
|-------------------|-------------------------|------------------------*|
Comments