Eric Clapton - Sunshine Of Your Love Chords & Tabs

 

Sunshine Of Your Love Chords & Tabs

Eric Clapton Chords & Tabs

Version: 2 Type: Tab 0 ratings
1 star 2 stars 3 stars 4 stars 5 stars
comments

Sunshine Of Your Love Tab

   
-------------------------------------------------------------------------------
	            sunshine of your love - eric clapton
-------------------------------------------------------------------------------

Tabbed by:elemenohpee
Email:hithotmail.com_me40@hotmail.com

Tuning:e a d g b e
[ Tab from: http://www.guitartabs.cc/tabs/e/eric_clapton/sunshine_of_your_love_tab_ver_2.html ]
   riff 1:
e|--------------------------------------
B|--------------------------------------
G|--------------------------------------
D|------12-12-10-12---------------------
A|------------------12-11-10----8-------
E|---------------------------10---10----
   riff 2:
e|-----------------------------------------
B|-----------------------------------------
G|------12-12-10-12------------------------
D|------------------12-11-10---------------
A|---------------------------10---10-------
E|------------------------------8---------- 
   chorus 1:
e|------5-55------5------5-----------------
B|------5-55------5------5-----------------
G|------6-66------5------5-----------------
D|------7-77------5------5-----------------
A|------7-77------3------5-----------------
E|------5-55-------------3-----------------
   chorous 2:
e|------5--5--5--5--5--5--5--5-------------
B|------5--5--5--5--5--5--5--5-------------
G|------6--6--6--6--6--6--6--6-------------
D|------7--7--7--7--7--7--7--7-------------
A|------7--7--7--7--7--7--7--7-------------
E|------5--5--5--5--5--5--5--5-------------

 intro  :riff 1 x4
 verse 1:riff 1 x4
         riff 2 x2
         riff 1 x4
 chorous:chorous 1 x3
         chorous 2 x1
 verse 2:riff 1 x4
         riff 2 x2
         riff 1 x4
 chorous:chorous 1 x3
         chorous 2 x1
 verse 3:riff 1 x4
         riff 2 x2
         riff 1 x4
 chorous:chorous 1 x3
         chorous 2 x1
 bridge :riff 1 x2 
 verse 4:riff 1 x4
         riff 2 x2
         riff 1 x4
 outro  :chorous 1 x3
         chorous 2 x1

| /  slide up
| \  slide down
| h  hammer-on
| p  pull-off
| ~  vibrato
| +  harmonic
| x  Mute note
===============================================================================
Comments