Eric Clapton - My Fathers Eyes Chords & Tabs

 

My Fathers Eyes Chords & Tabs

Eric Clapton Chords & Tabs

Version: 3 Type: Tab 0 ratings
1 star 2 stars 3 stars 4 stars 5 stars
comments

My Fathers Eyes Tab

Artist:Eric Clapton
Song:My Fathers Eyes
Tabber: Ethan Wallace



Intro lead:
e|-------------------------------------------------------------------|
B|-------------------------------------------------------------------|
G|-4/6~~--9-8--9-9~~---11b13--r11-9/6~~4--9-8--9-9--6~--8/6/4/6~~----|
D|-------------------------------------------------------------------|
A|-------------------------------------------------------------------|
E|-------------------------------------------------------------------|
[ Tab from: http://www.guitartabs.cc/tabs/e/eric_clapton/my_fathers_eyes_tab_ver_3.html ]
Bridge
e|----------------------------------12-11-12-12~-----|
B|-12~--12b14--12~--9---------12---------------------|
G|---------------------11p9-9------------------------|
D|---------------------------------------------------|
A|---------------------------------------------------|
E|---------------------------------------------------|

Solo
e|------12---12-11-12-12~---14b16--12h14p12~~12-11-12-12-----------------------------|
B|-9/12--------------------------------------------------10/12-10-9/10-7-4/7/4-2/5/7-|
G|-----------------------------------------------------------------------------------|
D|-----------------------------------------------------------------------------------|
A|-----------------------------------------------------------------------------------|
E|-----------------------------------------------------------------------------------|
Comments