Eric Clapton - My Fathers Eyes Chords & Tabs

 

My Fathers Eyes Chords & Tabs

Eric Clapton Chords & Tabs

Version: 2 Type: Tab 0 ratings
1 star 2 stars 3 stars 4 stars 5 stars
comments

My Fathers Eyes Tab

Artist: Eric Clapton
Song: My fathers eyes
tabbed by Coco
cocofuhgawz@hotmail.com



INTRO
e |----------------|-----------------------|------------------|
b |-----5-5/4--5-5-|--5/9--7/5-----5/4-5-5-|------------------|
g |-1/4------------|----------6------------|--2/4--7-6-4/6/8--|
d |----------------|-----------------------|------------------|
A |----------------|-----------------------|------------------|
E |----------------|-----------------------|------------------|


When Eric is singing, he doesn't play anything, except some riffs, but there are in the INTRO.


BRIDGE
e |-7----9----------------------7--5----5-------12-p-11-12-12--11--11------|
b |--------5--5----9---9-p-7\5-------9-----5-------------------------------|
g |------------------------------------------------------------------------|
d |------------------------------------------------------------------------|
A |------------------------------------------------------------------------|
E |------------------------------------------------------------------------|

[ Tab from: http://www.guitartabs.cc/tabs/e/eric_clapton/my_fathers_eyes_tab_ver_2.html ]
SOLO
Guitar.1
e |---------12----12--11--11/12--12--12-11-12-p-14-12--12-p-11-12-12-------|
b |-9---12-----------------------------------------------------------------|
g |------------------------------------------------------------------------|
d |------------------------------------------------------------------------|
A |------------------------------------------------------------------------|
E |------------------------------------------------------------------------|

Guitar.2
e |-------------------------------16--14-p-12--12--------------------------|
b |------------------------------------------------------------------------|
g |------------------------------------------------------------------------|
d |------------------------------------------------------------------------|
A |------------------------------------------------------------------------|
E |------------------------------------------------------------------------|

Guitar.1
e |------------------------------------------------------------------------|
b |--12---10---------------------------------------------------------------|
g |-----------13---11------------------------------------------------------|
d |--------------------14---11-14-14/16------------------------------------|
A |------------------------------------------------------------------------|
E |------------------------------------------------------------------------|


If you don't like this tab, please don't bother with e-mails.
But don't forget to rate
Comments