Eric Clapton - Malted Milk Chords & Tabs

 

Eric Clapton Chords & Tabs

Version: 1 Type: Tab 0 ratings
1 star 2 stars 3 stars 4 stars 5 stars
comments

Malted Milk Tab

#----------------------------------PLEASE NOTE---------------------------------#
#This file is the author's own work and represents their interpretation of the #
#song. You may only use this file for private study, scholarship, or research. #
#------------------------------------------------------------------------------#

Date: 25.02.2004
Tabbed by Peter Tuyp (peter.tuyp@wxs.nl)

Subject:
Eric Clapton - Malted milk (unplugged)

This song is originaly played by two guitars. I found it hard to keep them apart,
so I made this tab in wich I melted them more or less together.


Intro:
e|----12-12-12-12-12------5-5---5---5----------------------------------------
B|----12-12-12-12-12------4-4---4---4----------------------------------------
G|---------------------------------------------------------------------------
D|-12-------11----10-9--4-----4---4------------------------------------------
A|---------------------------------------------------------------------------
E|---------------------------------------------------------------------------
                                  I keep

e|-7-7-7---------5-5-5----------------------------------------0-7--7-7--7-7--
B|---------------5-5-5-0----9/12-12-12-12-11-11-11-10-10-10-9-9--------------
G|-7-7-7---------6-6-6------------------------------------------7--7-7--7-7--
D|-6-6-6-0---2---5-5-5------9/12-12-12-12-11-11-11-10-10-10-9---6--6-6--6-6--
A|-7-7-7-2-3-3/4-7-7-7------------------------------------------7--7-7--7-7--
E|-0-0-0---------5-5-5---0--------------------------------------0--0-0--0-0--
   drinkin' malted milk
                   tryin' to drive my blues away

e|-4/5--5--4/5----5-4/5----5-4/5-7--5-7--4---------------4---------4-7-------
B|-4/5--5--4/5----5-4/5----5-4/5-5--5----5-7b8-7b8-7b8r7-5-7b8-5-5-5-5-----5-
G|-5/6--6--5/6-6--6-5/6-6--6-5/6------7--------------------------------6-8---
D|-4/5--5--4/5-7--5-4/5-7--5-4/5------6--------------------------------------
A|-6/7-----6/7------6/7------6/7------7--------------------------------------
E|-4/5-----4/5------4/5------4/5------0--------------------------------------
  I keep drinkin' malted milk,
                       tryin' to drive my blues away.

e|-------------7---7-7---4/5--5--5-4/5--7-5--0---7-------6-6---5--5--5-5-5-5-
B|-------------7---7-7---4/5--5--5-4/5--5-5--0---6-------5-5---4--4--4-4-4-4-
G|-----------8---8-------5/6-----6-5/6-----------6-------5-5---4--4--4-4-4-4-
D|---------7-------------4/5-----5-4/5---------6---6/5-5---------------------
A|-11-10-9---------------6/7-------6/7-----------------------2---------------
E|---------------------7-4/5-------4/5---------------------------------------
   Baby you're just as welcome to my lovin'
                         as the flowers is in May.                     Malted   

e|-7-7-7-7-7--4/5--5-4/5--5--7--0------------------0--7---------7-7----------
B|-------5----4/5--5-4/5--5--------------------------------------------------
G|-7-7-7---7--5/6--6-5/6--6--7--0---------------------7---------7-7----------
D|-6-6-6---6--4/5--5-4/5--5--6---------2-5-5-2---2----6---------6-6----------
A|-7-7-7---7--6/7----6/7--7--7-----2-4---------4------7------7--7-7----------
E|-0-0-0---0--4/5----4/5--5--0------------------------0--7-9----0-0----------
   milk, malted milk, keep rushing to my head.                         Malted

e|-4/5--5--4/5---5-4/5-7-7-7-7-7-5-7-----7-7-7-----7-7-7-7--------0-7--------
B|-4/5--5--4/5---5-4/5-5-5-5-5-5-5---7/9-9-9-9-7/9-9-9-9-9--------0-9--------
G|-5/6--6--5/6-6-6-5/6-4-4-4-4-4-4-7----------------------------9----------9-
D|-4/5--5--4/5-7-5-4/5-5-5-5-5-5-5-6-----------------------9-11-------9-11---
A|-6/7-----6/7-----6/7-------------7-----------------------------------------
E|-4/5-----4/5-----4/5-------------0-----------------------------------------
   milk, malted milk, keep rushing to my head.

e|-------------7---7-7---4/5--5--5-4/5--7-5--0---7-------6-6---5--5--5-5-5-5-
B|-------------7---7-7---4/5--5--5-4/5--5-5--0---6-------5-5---4--4--4-4-4-4-
G|-----------8---8-------5/6-----6-5/6-----------6-------5-5---4--4--4-4-4-4-
D|---------7-------------4/5-----5-4/5---------6---6/5-5---------------------
A|-11-10-9---------------6/7-------6/7-----------------------2---------------
E|---------------------7-4/5-------4/5---------------------------------------
   And I have a funny, funny feeling 
                       and I'm talking all out my head.                  Baby

e|-7-7-7-------4/5--5-4/5--5--7------7-7-7--7-7-7--7--------0-7--------------
B|-------------4/5--5-4/5--5-----7/9-9-9-9--9-9-9--9--------0-9--------------
G|-7-7-7-------5/6--6-5/6--6--7---------------------------9----------9-------
D|-6-6-6--6----4/5---------5--6----------------------9-11-------9-11---------
A|-7-7-7--7----6/7------------7----------------------------------------------
E|-0-0-0----7--4/5------------0----------------------------------------------
   fix me one more drink, 
                and hug your daddy one more time.

e|-7--4/5--5-5--5--4/5--5-5-7-5-0-------------------------0--7---------------
B|----4/5--5-5--5--4/5--5-5-5-5---------------------------0------------------
G|-7--5/6--6-6--6--5/6--6-6-----4----------------------------7---------------
D|-6--4/5--5-5--5--4/5--5-5--------2/5-2-----2/5-5-2---2-----6---------------
A|-7--6/7--7-7--7--6/7--7-7--------------2-4---------4-------7------7--------
E|-0--4/5--5-5--5--4/5--5-5----------------------------------0--7-9----------
   Baby fix me one more drink, 
                    and hug your daddy one more time.
[ Tab from: http://www.guitartabs.cc/tabs/e/eric_clapton/malted_milk_tab.html ]
e|-------------7---7-7---4/5-7-5--2/3-7-5--0-0----7-------6-6---5--5--5-5----
B|-------------7---7-7---4/5-5-5--4/5-5-5---------6-------5-5---4--4--4-4----
G|-----------8---8-------5/6------2/3------4-4----6-------5-5---4--4--4-4----
D|---------7-------------4/5------4/5-----------6---6/5-5--------------------
A|-11-10-9-------------2-6/7------2/3-------------------------2--------------
E|-----------------------4/5------2/3----------------------------------------
   Keep on stirring my malted milk, mama, 
                           until I change my mind.

Solo:
e|------------------------------------7-6-5----------------------------------
B|-----5-7br-7br-7br-5---5~~--2/5-5-5-------8br-8br-5---5~~------------------
G|-4-6-----------------6----6-------------------------6----------------------
D|---------------------------------------------------------------------------
A|---------------------------------------------------------------------------
E|---------------------------------------------------------------------------


e|-4/7-7-7-7-10-10-10-7-7-7-4--7-7--7-7--7-7---------------------------------
B|-5/9-9-9-9-12-12-12-9-9-9-5------------------------------------------------
G|- ---------------------------7-7--7-7--7-7---------------------------------
D|-----------------------------6-6--6-6--6-6---------------------------------
A|-----------------------------7-7--7-7--7-7---------------------------------
E|---------------------------------------------------------------------------


e|------------------------------------7-6-5----------------------------------
B|-----5-7br-7br-7br-5---5~~--2/5-5-5-------8br-8br-5---5~~------------------
G|-4/6-----------------6----6-------------------------6----------------------
D|---------------------------------------------------------------------------
A|---------------------------------------------------------------------------
E|---------------------------------------------------------------------------


e|-4/7-7-7-7-10-10-10-7-7-7-4--7-7--7-7--7-7---------------------------------
B|-5/9-9-9-9-12-12-12-9-9-9-5------------------------------------------------
G|-----------------------------7-7--7-7--7-7---------------------------------
D|-----------------------------6-6--6-6--6-6---------------------------------
A|-----------------------------7-7--7-7--7-7---------------------------------
E|---------------------------------------------------------------------------


e|---------9-8-7------------7-6-----5----5-----------------------------------
B|-2/7-7-7-------10~~-----5-----/8b---8b---8b-8b-5---5~~---------------------
G|--------------------4/6--------------------------6-------------------------
D|---------------------------------------------------------------------------
A|---------------------------------------------------------------------------
E|---------------------------------------------------------------------------

                       
E|---7-------6-6---5--5--5-5-5-5---------------------------------------------
B|---6-------5-5---4--4--4-4-4-4---------------------------------------------
G|---6-------5-5---4--4--4-4-4-4---------------------------------------------
D|-6---6/5-5-----------------------------------------------------------------
A|---------------2-----------------------------------------------------------
E|---------------------------------------------------------------------------
                           My doorknob          
          
e|-7-7-7----4/5--5-4/5--5---------7-7-7-4-4-4/7-7-7-7/9-9-9-9-7-7-7-4--------
B|-0-0-0----4/5--5-4/5--5--0--6/9-9-9-9-----------------------------5--------
G|-7-7-7----5/6--6-5/6--6--1------------4-4-4/7-7-7-7/9-9-9-9-7-7-7----------
D|-6-6-6----4/5--5-4/5--5--2-------------------------------------------------
A|-7-7-7--7-6/7----6/7-----2-------------------------------------------------
E|-0-0-0--7-4/5----4/5-------------------------------------------------------
   keeps on turnin', 
            there must be spooks around my bed.

e|-7-7--7-7--7-7---4/5--5-4/5--5-4/5--5-4/5--7-5-----------------------------
B|-9-9--9-9--9-9---4/5--5-4/5--5-4/5--5-4/5--5-5--0--------------------------
G|-7-7--7-7--7-7---5/6--6-5/6--6-5/6--6-5/6-------1--------------------------
D|-9-9--9-9--9-9---4/5--5-4/5--5-4/5--5-4/5-------2--------------------------
A|-7-7--7-7--7-7---6/7--7-6/7--6-6/7--7-6/7-------2--------------------------
E|-7-7--7-7--7-7---4/5--5-4/5--5-4/5--5-4/5----------------------------------
              My doorknob keeps on turnin'
                                  there must be spooks around my bed.

e|-----7-7-7-4-4-4/7-7-7-7/9-9-9-9-7-7-7-4-----------------------------------
B|-6/9-9-9-9-----------------------------5-----------------------------------
G|-----------4-4-4/7-7-7-7/9-9-9-9-7-7-7-------------------------------------
D|---------------------------------------------------------------------------
A|---------------------------------------------------------------------------
E|---------------------------------------------------------------------------


e|-7-7--7-7--7-7-------2-2--2-2--2-2--7/6-7-5--------------------------------
B|-9-9--9-9--9-9-------4-4--4-4--4-4--7/6-5-5-5-8b-8b-5~~--------------------
G|-7-7--7-7--7-7-------2-2--2-2--2-2--8/7-6----------------------------------
D|-9-9--9-9--9-9-6-5-4-4-4--4-4--4-4--9/8-5----------------------------------
A|-7-7--7-7--7-7-------2-2--2-2--2-2--9/8-7----------------------------------
E|-7-7--7-7--7-7-------2-2--2-2--2-2--7/6-5----------------------------------
              And I have a funny, funny feeling, 
                                       and the hair's rising on my head.

Outro:
e|----7-10br-7-----------------------------12(harmonic)----------------------
B|-/9----------9-7br-7br-5---5~~--------0------------------------------------
G|-------------------------6-----------1-------------------------------------
D|------------------------------------2--------------------------------------
A|-----------------------------------2---------------------------------------
E|---------------------------------0-----------------------------------------
Comments