Eric Clapton - Lonely Stranger Acoustic Chords & Tabs

 

Lonely Stranger Acoustic Chords & Tabs

Eric Clapton Chords & Tabs

Version: 1 Type: Tab 0 ratings
1 star 2 stars 3 stars 4 stars 5 stars
comments

Lonely Stranger Acoustic Tab

Artist: Eric Clapton
Song: Lonely Stranger (Unplugged)
Album: Eric Clapton Unplugged

As far as i'm aware there is no tab of this on the net so i thought i'd give it a shot :) It's far from 
but if you follow this
whilst listening to the track you might get the idea. Its a messy tab but i can't be arsed cleaning it up 
if anyone with a better ear
and tabbing skills wants to improve it then go ahead!

Any suggestions or corrections (aside from timing errors which are definately there!)
please email me:

maluspumila@email.com

cheers,
Jonny

Standard Tuning

Symbols:

5\2 Slide from 5 to 2
2/5 Slide from 2 to 5
0h2 Hammer on from 0 to 2
2p0 Pull off from 2 to 0


This is played pretty fast!

|------------------------------4--2-0-4-5-5/7-5h7p5--3h5p3-3---3/6\0------|
|-5----5\2-0------------5--4/5--------------------------------------------|
|------------0h2p0--------------------------------------------------------|
|------------------2------------------------------------------------------|
|-------------------------------------------------------------------------|
|-------------------------------------------------------------------------|
[ Tab from: http://www.guitartabs.cc/tabs/e/eric_clapton/lonely_stranger_acoustic_tab.html ]
|-----3---5---3----------------------------------|
|-3/5---5-------5-3------------------------------|
|-------------------4p2---2----------------------|
|-----------------------5---2h5-------------9----|
|--------------------------------5-3p0-----------|
|--------------------------------------3--0------|

       * Repeat v. fast
|------|-------|-------|-------|--------------------------------|
|-7--5-|8--7-5-|8--7-5-|8--7-5-|8--7-5--4h5-4h5p4h5--8-5--------|
|------|-------|-------|-------|--------------------------------|
|------|-------|-------|-------|--------------------------------|
|------|-------|-------|-------|--------------------------------|
|------|-------|-------|-------|-------------------------0------|

|-7---------------------------------------|
|-8---------------------------------------|
|----9----------0h1-----------------------|
|------9-7----------2---------------------|
|---------------------2-------------------|
|-----------------------0-----------------|

|-----------------------------------0-------|
|-------------------------------------------|
|-------------------------------------------|
|----5/6--9-7------------7-7/9-6------------|		Repeat this... :)
|-------------------------------------------|
|-------------(0)----0-0---------(0)----0-0-|

             (0)played softly
Comments