Eric Clapton - Let It Rain Chords & Tabs

 

Let It Rain Chords & Tabs

Eric Clapton Chords & Tabs

Version: 1 Type: Tab 0 ratings
1 star 2 stars 3 stars 4 stars 5 stars
comments

Let It Rain Tab

                            Eric Clapton
                            Let it Rain

Intro:
|-0--0--------3--------3--3--3-2-3-5---|
|-5--5--5-3-5---3------3--3----------5-|
|--------------------------------------|
|--------------------------------------|
|--------------------------------------|
|--------------------------------------|

|-0--0--------3--------3--3--3-2-3-5---|
|-5--5--5-3-5---3------3--3----------5-|
|--------------------------------------|
|--------------------------------------|
|--------------------------------------|
|--------------------------------------|

|-0--0--------3--------3--3--3-2-3-5---|
|-5--5--5-3-5---3------3--3----------5-|
|--------------------------------------|
|--------------------------------------|
|--------------------------------------|
|--------------------------------------|

|-0--0--------3--------3--3--3-2-3-5---|
|-5--5--5-3-5---3------3--3----------5-|
|--------------------------------------|
|--------------------------------------|
|--------------------------------------|
|--------------------------------------|

|-0--0--------3--------3--3--3-2-3-5---|
|-5--5--5-3-5---3------3--3----------5-|
|--------------------------------------|
|--------------------------------------|
|--------------------------------------|
|--------------------------------------|

|-0--0--------3--------3--3--3-2-3-5-3-2---|
|-5--5--5-3-5---3------3--3--------------5-|
|------------------------------------------|
|------------------------------------------|
|------------------------------------------|
|------------------------------------------|

The rain is falling through the mist of sorrow that surrounded me.
The sun could never thaw away the bliss that lays around me.

Let it Rain,
|------------------|
|-------------/7-5-|
|----------2-------|
|------------------|
|------------------|
|------------------|

Let it Rain.
|------------------|
|-------------/7-5-|
|----------2-------|
|------------------|
|------------------|
|------------------|

Let your love rain down on me
|-------------------------------|
|-5---5---2---/7---5------------|
|-------------------------------|
|-------------------------------|
|-------------------------------|
|-------------------------------|

Let it Rain,
|------------------|
|-------------/7-5-|
|----------2-------|
|------------------|
|------------------|
|------------------|

Let it Rain.
|------------------|
|-------------/7-5-|
|----------2-------|
|------------------|
|------------------|
|------------------|

Let it Rain, Rain, Rain.

Her life was like a desert flower burning in the sun.
Until i found the way to love, it's harder said than done.

Let it Rain,
|------------------|
|-------------/7-5-|
|----------2-------|
|------------------|
|------------------|
|------------------|

Let it Rain.
|------------------|
|-------------/7-5-|
|----------2-------|
|------------------|
|------------------|
|------------------|

Let your love rain down on me
|-------------------------------|
|-5---5---2---/7---5------------|
|-------------------------------|
|-------------------------------|
|-------------------------------|
|-------------------------------|

Let it Rain,
|------------------|
|-------------/7-5-|
|----------2-------|
|------------------|
|------------------|
|------------------|

Let it Rain.
|------------------|
|-------------/7-5-|
|----------2-------|
|------------------|
|------------------|
|------------------|

Let it Rain, Rain, Rain.

|-0--0--------3--------3--3--3-2-3-5---|
|-5--5--5-3-5---3------3--3----------5-|
|--------------------------------------|
|--------------------------------------|
|--------------------------------------|
|--------------------------------------|

|-0--0--------3--------3--3--3-2-3-5-3-2---|
|-5--5--5-3-5---3------3--3--------------5-|
|------------------------------------------|
|------------------------------------------|
|------------------------------------------|
|------------------------------------------|


|-------------9---------------------|
|----9-10-12-----12-10--------------|
|-11--------------------------------|
|-----------------------------------|
|-----------------------------------|
|-----------------------------------|

|-14-14--12-10----------------------|
|--------------12-12-13p12p10-------|
|-----------------------------11----|
|-----------------------------------|
|-----------------------------------|
|-----------------------------------|

Guitar 1
|-------2------------------2--------|
|-3-3-5---5-3-5------3-3-5---5-3-5--|
|-----------------------------------|
|-----------------------------------|
|-----------------------------------|
|-----------------------------------|
|                                   |
|                                   |
|Guitar 2                           |
|--------------7-10------7----------|
|-------------8-----10-8------------|
|------------9----------------------|
|-----------------------------------|
|-----------------------------------|
|-----------------------------------|



|-------2------------------2--------|
|-3-3-5---5-3-5------3-3-5---5-3-5--|
|-----------------------------------|
|-----------------------------------|
|-----------------------------------|
|-----------------------------------|
|                                   |
|                                   |
|Guitar 2                           |
|--------------7-10-------------7---|
|-------------8-----10-8-10p8-------|
|------------9----------------9-----|
|-----------------------------------|
|-----------------------------------|
|-----------------------------------|




|-------2------------------2--------|
|-3-3-5---5-3-5------3-3-5---5-3-5--|
|-----------------------------------|
|-----------------------------------|
|-----------------------------------|
|-----------------------------------|
|                                   |
|                                   |
|Guitar 2                           |
|--------------7-----------------7--|
|-------------8--8--10p8---10p8-----|
|------------9-----------9-----9----|
|-----------------------------------|
|-----------------------------------|
|-----------------------------------|


Now i know the secret, there is nothing that I lack.
If i give my love to you, you'll surely give it back.

Let it Rain,
|------------------|
|-------------/7-5-|
|----------2-------|
|------------------|
|------------------|
|------------------|

Let it Rain.
|------------------|
|-------------/7-5-|
|----------2-------|
|------------------|
|------------------|
|------------------|

Let your love rain down on me
|-------------------------------|
|-5---5---2---/7---5------------|
|-------------------------------|
|-------------------------------|
|-------------------------------|
|-------------------------------|

Let it Rain,
|------------------|
|-------------/7-5-|
|----------2-------|
|------------------|
|------------------|
|------------------|

Let it Rain.
|------------------|
|-------------/7-5-|
|----------2-------|
|------------------|
|------------------|
|------------------|

Let it Rain, Rain, Rain.

Let it Rain,
|------------------|
|-------------/7-5-|
|----------2-------|
|------------------|
|------------------|
|------------------|

Let it Rain.
|------------------|
|-------------/7-5-|
|----------2-------|
|------------------|
|------------------|
|------------------|

Let your love rain down on me
|-------------------------------|
|-5---5---2---/7---5------------|
|-------------------------------|
|-------------------------------|
|-------------------------------|
|-------------------------------|

Let it Rain,
|------------------|
|-------------/7-5-|
|----------2-------|
|------------------|
|------------------|
|------------------|

Let it Rain.
|------------------|
|-------------/7-5-|
|----------2-------|
|------------------|
|------------------|
|------------------|

Let it Rain, Rain, Rain.
[ Tab from: http://www.guitartabs.cc/tabs/e/eric_clapton/let_it_rain_tab.html ]
|-0--0--------3--------3--3--3-2-3-5---|
|-5--5--5-3-5---3------3--3----------5-|
|--------------------------------------|
|--------------------------------------|
|--------------------------------------|
|--------------------------------------|

|-0--0--------3--------3--3--3-2-3-5---|
|-5--5--5-3-5---3------3--3----------5-|
|--------------------------------------|
|--------------------------------------|
|--------------------------------------|
|--------------------------------------|

|-0--0--------3--------3--3--3-2-3-5---|
|-5--5--5-3-5---3------3--3----------5-|
|--------------------------------------|
|--------------------------------------|
|--------------------------------------|
|--------------------------------------|

Guitar Solo:
|-17-17-17-17-17-17-17-17-17-17-17-17-17-17-17-17-17-17-17-17-17-|
|----------------------------------------------------------------|
|----------------------------------------------------------------|
|----------------------------------------------------------------|
|----------------------------------------------------------------|
|----------------------------------------------------------------|

|-17-17-17-17-17-17-17-17-17-17-17-17-17-17-17-17-17-17-17-17-17-|
|----------------------------------------------------------------|
|----------------------------------------------------------------|
|----------------------------------------------------------------|
|----------------------------------------------------------------|
|----------------------------------------------------------------|

|-15-15-15-15-14-14-14-14----------------------------------------|
|-------------------------17-17-17-17-15-15-15-15-14-------------|
|----------------------------------------------------------------|
|----------------------------------------------------------------|
|----------------------------------------------------------------|
|----------------------------------------------------------------|

|----------------------------------------------------------------|
|-14--15--14p12---------------------------------------------14---|
|---------------14------14-14-14-14-14-14-14-14-14-14-14-14------|
|----------------------------------------------------------------|
|----------------------------------------------------------------|
|----------------------------------------------------------------|

|----------------------------------------------------------------17-|
|---14---15---14p12--------14--17-19--19-17-19-17-19-19-19-19-19----|
|-------------------14----------------------------------------------|
|-------------------------------------------------------------------|
|-------------------------------------------------------------------|
|-------------------------------------------------------------------|

|--17h19p17----21------21--21-21--19-------22----22--21--22--21-|
|-----------17--------------------------------------------------|
|---------------------------------------------------------------|
|---------------------------------------------------------------|
|---------------------------------------------------------------|
|---------------------------------------------------------------|

|------19-----19-----19-----19-----19-|
|-19h22--19h22--19h22--19h22--19h22---|
|-------------------------------------|
|-------------------------------------|
|-------------------------------------|
|-------------------------------------|

|-19p17p14-19p17p14-19p17p14-19p17p14-19p17p14-19/21--19-17h19p17----17-|
|-----------------------------------------------------------------19----|
|-----------------------------------------------------------------------|
|-----------------------------------------------------------------------|
|-----------------------------------------------------------------------|
|-----------------------------------------------------------------------|

|---------------------------------|
|-17h19-17h19-17------------------|
|-----------------14h16p14----14--|
|--------------------------16-----|
|---------------------------------|
|---------------------------------|

|-------14-------17--------|
|-------------------17-----|
|-14-16----------------14--|
|--------------------------|
|--------------------------|
|--------------------------|

|--------------------------------------------------------------------------|
|--------------------------------------------------------------------------|
|------14-14-16p14--14-16p14-------------------------------14----14----14--|
|-14h16-----------16--------16-14-16p14--------------14-16----16----16-----|
|--------------------------------------16------14-16-----------------------|
|--------------------------------------------------------------------------|

Keyboard Solo

Continue to Guitar Solo:
|----17-19--20---20---20---20---20-20-20-20-20-20-19p17----17--17\-|
|-19----------------------------------------------------19-----17\-|
|------------------------------------------------------------------|
|------------------------------------------------------------------|
|------------------------------------------------------------------|
|------------------------------------------------------------------|

|20---19p17---20---19p17---20---19p17---20---19p17---20p17---17-17--17-17-17|
|----------19-----------19-----------19-----------19------19------19--------|
|---------------------------------------------------------------------------|
|---------------------------------------------------------------------------|
|---------------------------------------------------------------------------|
|---------------------------------------------------------------------------|

|------17-17------17-----17-----17-----17-----17-----17-------------------|
|-17h19------17h19--17h19--17h19--17h19--17h19--17h19---19-17-------------|
|-------------------------------------------------------------18-16-18-14-|
|-------------------------------------------------------------------------|
|-------------------------------------------------------------------------|
|-------------------------------------------------------------------------|

|------------------------------------------------------------|
|------------------------------------------------------------|
|-------14-16-14-18----14-16-14---------------------------14-|
|-14-16-------------------------16-14----------------14-16---|
|-------------------------------------16-12--12-14-16--------|
|------------------------------------------------------------|

|---------------------------|
|---------------------------|
|---------------14h16p14----|
|----------14-16--------16--|
|-12-14-16------------------|
|---------------------------|

|----14-12--------------------12--------12----------------------------------|
|-14-------14-12-14-12----14-----14--------14-12----------------------------|
|----------------------14------------------------14-11----------------------|
|---------------------------------------------------------14-11-------11-14-|
|---------------------------------------------------------------14-12-------|
|---------------------------------------------------------------------------|

|----12-12---12--12--12--12--12--12--12--12--12-|
|-14-------14--14--14--14--14--14--14--14--14---|
|-----------------------------------------------|
|-----------------------------------------------|
|-----------------------------------------------|
|-----------------------------------------------|

|-----------------------------------------------------|
|-14--12----------------------------------------------|
|--------14--11-14--11-14--11-14--11-14--11-14--11-14-|
|-----------------------------------------------------|
|-----------------------------------------------------|
|-----------------------------------------------------|

|-------12-----------------------------------------------------------21(23)-|
|-12-14----14-12--14-12-----------------------------------------------------|
|-----------------------14-11------------------------13(14)-----------------|
|-----------------------------14-12-14-12------------------14---------------|
|-----------------------------------------14-12-----------------------------|
|---------------------------------------------------------------------------|
Comments