Eric Clapton - Layla Chords & Tabs

 

Layla Chords & Tabs

Eric Clapton Chords & Tabs

Version: 1 Type: Bass Tab 0 ratings
1 star 2 stars 3 stars 4 stars 5 stars
comments

Layla Bass Tab

   
Song: Layla
Artist: Eric Clapton
Tabbed by: James Pucyk (pucyk_james@hotmail.com)

This is the tab for the first part of Layla, I could have tabbed the second
part but it would have taken too much time.

Intro/Chorus/Solo
G|------------|-------------|
D|*-----------|------------*|
A|*-----------|------------*|
E|-5-51-13-35-|-55-51-13-35-| 
Note: Last note of intro goes from the G to Ab, first note of the verse.
[ Tab from: http://www.guitartabs.cc/tabs/e/eric_clapton/layla_btab.html ]
Verses
                           Waiting...=|> first verse lyrics
                           | by..=====|
                           V V 
G|-------------------|----------------|-----------------6-7-9--9-10-12---|
D|----------------45-|-6-6-5-7---520--|---0-2-4--5-7-9-------------------|
A|-------34-6-6-66---|---------2----2-|-4--------------------------------|
E|-4-4-4-------------|----------------|----------------------------------|
   E E E SS E E SSSS   E E E E Q SSSS   

G|-10-9-7----------------------|
D|--------9--9-7-6-------------|
A|-----------------8--9-6-5----|
E|--------------------------7--|
Comments