Eric Clapton - Layla Acoustic Chords & Tabs

 

Layla Acoustic Chords & Tabs

Eric Clapton Chords & Tabs

Version: 1 Type: Bass Tab 0 ratings
1 star 2 stars 3 stars 4 stars 5 stars
comments

Layla Acoustic Bass Tab

Artist: Eric Clapton
Song: Layla unplugged
tabbed by Coco
cocofuhgawz@hotmail.com

  KEY:
/ = Slide 

_____________________________________________________________________________

INTRO

 1|------------|----------------|------------------|
 2|------------|----------------|------------------|
 3|------------|----------------|------------------|
 4|-5--1--3--5-|-5--1--X3-X3--5-|-5--1--3--3/5-----|



FIRST SOLO
[ Tab from: http://www.guitartabs.cc/tabs/e/eric_clapton/layla_acoustic_btab.html ]
 1|---------|---------|-----------------------|---------|
 2|---------|---------|-----------------------|---------|
 3|---------|---------|-----------------------|---------|
 4|-0-0-2-4-|-0-0-2-4-|-0-0-2-444-555-444-222-|-0-0-2-4-|


DO THIS THE WHOLE SONG EXCEPT IN THE CHORUS
 1|------------------------------|
 2|--0-0-2-4---------------------|
 3|--x-x-------------------------|
 4|--0-0-2-4---------------------|


CHORUS AND SECOND SOLO

 1|--5--1--3--5---------------------|
 2|---------------------------------|
 3|---------------------------------|
 4|---------------------------------|


END

 1|---------------------------|
 2|---------------------------|
 3|----5--3--5/8--------------|
 4|---------------------------|



 Any comments or additions please e-mail me to cocofuhgawz@hotmail.com
Comments