Eric Clapton - Key To The Highway Chords & Tabs

 

Key To The Highway Chords & Tabs

Eric Clapton Chords & Tabs

Version: 1 Type: Tab

Key To The Highway Tab

Intro:

e|---9--9----9--9----9--9----9--9------9-9-9-10-10-10-12-12-10-10------------|
B|--10-10---10-10---10-10---10-10------9-9-9--9--9--9--9--9--9--9------------|
G|---9--9----9--9----9--9----9--9------9-9-9--9--9--9--9--9--9--9------------|
D|---------------------------------------------------------------------------|
A|---------------------------------------------------------------------------|
E|---------------------------------------------------------------------------|

e|-2-2-2-2--2-2-2-2-2-2-2----------------------------------------------------|
B|-1-1-0-1--0-0-0-0-0-0-0------5-5-5-5-5-5-5-5-5---7b-7p5--------------------|
G|-2-2-2-2--2-2-2-2-2-2-2------6-6-6-6-6-6-6-6-6----------7-5----------------|
D|----------1-1-1-1-1-1-1------5-5-5-5-5-5-5-5-5--------------7-5-7----------|
A|----------2-2-2-2-2-2-2----------------------------------------------------|
E|---------------------------------------------------------------------------|

e|---5-5--5-5--5-5--5-0-------------------------------------------------------|
B|------------------------------------3-3-3-----------------------------------|
G|--------------------------1-1-1-1-1-1-1-1-----------------------------------|
D|---5-5--5-4--4-3--3-2-----2-2-2-2-2-2-2-2-----------------------------------|
A|--------------------------2-2-2-2-2-2-2-2-----------------------------------|
E|--------------------------0-0-0-0-0-0-0-0-----------------------------------|

Verses:

e|---9--9----9--9----9--9----9--9------9-9-9-10-10-10-12-12-10-10------------|
B|--10-10---10-10---10-10---10-10------9-9-9--9--9--9--9--9--9--9------------|
G|---9--9----9--9----9--9----9--9------9-9-9--9--9--9--9--9--9--9------------|
D|---------------------------------------------------------------------------|
A|---------------------------------------------------------------------------|
E|---------------------------------------------------------------------------|
[ Tab from: http://www.guitartabs.cc/tabs/e/eric_clapton/key_to_the_highway_tab.html ]
e|-2-2-2-2--2-2-2-2-2-2-2-----------------------------------------------------|
B|-1-1-0-1--1-1-1-1-1-0-1-----------------------------------------------------|
G|-2-2-2-2--2-2-2-2-2-2-2------------------------------1--1-1--1-1------------|
D|----------------------------2-2--2-4--4-2--2----2----2--2-2--2-2--------3-5-|
A|----------------------------0-0--0-0--0-0--0-3h4-----2--2-2--2-2----3/5-----|
E|-----------------------------------------------------0--0-0--0-0--0---------|

e|---5-5--5-5--5-5--5-0------------------------------------------------------|
B|------------------------------------3-3-3----------------------------------|
G|--------------------------1-1-1-1-1-1-1-1----------------------------------|
D|---5-5--5-4--4-3--3-2-----2-2-2-2-2-2-2-2----------------------------------|
A|--------------------------2-2-2-2-2-2-2-2----------------------------------|
E|---------------------------------------------------------------------------|

Ending:

e|---9--9----9--9----9--9----9--9------9-9-9-10-10-10-12-12-10-10------------|
B|--10-10---10-10---10-10---10-10------9-9-9--9--9--9--9--9--9--9------------|
G|---9--9----9--9----9--9----9--9------9-9-9--9--9--9--9--9--9--9------------|
D|---------------------------------------------------------------------------|
A|---------------------------------------------------------------------------|
E|---------------------------------------------------------------------------|

e|-2-2-2-2--2-2-2-2-2-2-2----------------------------------------------------|
B|-1-1-0-1--0-0-0-0-0-0-0------5-5-5\4-4-4/5-5-5\4-4-4/5---7b-7p5------------|
G|-2-2-2-2--2-2-2-2-2-2-2------6-6-6\5-5-5/6-6-6\5-5-5/6----------7-5--------|
D|----------1-1-1-1-1-1-1------5-5-5\4-5-4/5-5-5\4-4-4/5--------------7-5-7--|
A|----------2-2-2-2-2-2-2----------------------------------------------------|
E|---------------------------------------------------------------------------|

e|---5-5--5-5--5-5--5-0-------------------------------------------------------|
B|------------------------------3----2----------------------------------------|
G|--------------------------1---1----2----------------------------------------|
D|---5-5--5-4--4-3--3-2-----2---2----2----------------------------------------|
A|--------------------------2---2----0----------------------------------------|
E|--------------------------0---0---------------------------------------------|