Eric Clapton - Hoochie Coochie Man Chords & Tabs

 

Hoochie Coochie Man Chords & Tabs

Eric Clapton Chords & Tabs

Version: 1 Type: Bass Tab 0 ratings
1 star 2 stars 3 stars 4 stars 5 stars
comments

Hoochie Coochie Man Bass Tab

riff 1:
g-----------------| 
d-----5---5-------| 
a-3-7---7----7----| 
e-----------------| 

riff 2:
g---------------------------------------| 
d-----5---5-7-7--5-5----------5---------| 
a-3-7---7-------------7-7-5-7-----------| 
e---------------------------------------|
 
riff 3:
g---------2-2-4-2----|
d-0-0-4-4------------| 
a--------------------| 
e--------------------|

riff 4:
g-----------------------| 
d---------2-2-4-2-------| 
a-0-0-4-4---------------| 
e-----------------------|
[ Tab from: http://www.guitartabs.cc/tabs/e/eric_clapton/hoochie_coochie_man_btab.html ]
riff 5:
g----------------------| 
d----------------------| 
a---------2-2-4-2------| 
e-0-0-4-4--------------| 

riff 3x1 

riff 6: 
g------------------------2------------------------------------------------------|
d---------2------0-0-3-4------------------2-------------------------------------| 
a-0-0-3-4-------------------------0-0-3-4---------------------------------------| 
e-------------------------------------------------------------------------------| 

riff 1x7
riff 2x1
riff 3x1
riff 4x2
riff 5x1
riff 6x1
riff 4x1
riff 3x1
riff 4x2
riff 3x2
riff 4x2
riff 5x1
riff 6x1
riff 3x2
riff 4x2
riff 5x1
riff 3x1
riff 6x1
Comments