Eric Clapton - Eyesight To The Blind Chords & Tabs

 

Eyesight To The Blind Chords & Tabs

Eric Clapton Chords & Tabs

Version: 1 Type: Tab

Eyesight To The Blind Tab

Eyesight to The Blind 
Eric Clapton 
This is that song in Tommy the who movie that Eric Clapton plays the
Preacher. There is no other tab so im making 1 its my first time so
if it sucks just tell me.
Main Riff

E|------------------------------|----------------------------------|
B|------------------------------|----------------------------------|
G|------------------------------|----------------------------------|
D|----------5h7-------7-7-------|-----------5h7---------7-7--------|
A|---5h7------------------------|---5h7----------------------------|
E|------------------------------|----------------------------------|


Rythem
[ Tab from: http://www.guitartabs.cc/tabs/e/eric_clapton/eyesight_to_the_blind_tab.html ]
E|------------------------------|----------------------------------|
B|------------------------------|----------------------------------|
G|------------------------------|----------------------------------|
D|------------------------------|----------------------------------|
A|--------------------7-7-------|-----------------------7-7--------|
E|--------------------5-5-------|-----------------------5-5--------|


Than when Clapton sings  “You know her daddy gives her Magic…..”

The Main Riff stays the same but the Rythem goes


E|------------------------------|----------------------------------|
B|------------------------------|----------------------------------|
G|------------------------------|----------------------------------|
D|-----9------------7-----------|----------------------------------|
A|-----7------------5-----------|------7-7-------------------------|
E|------------------------------|------5-5-------------------------|

Going down the blues scale.  Thaats all if u have any questions about
the lead just email me at fireblaster29@hotmail.com