Eric Clapton - Cocaine Chords & Tabs

 

Cocaine Chords & Tabs

Eric Clapton Chords & Tabs

Version: 4 Type: Tab 0 ratings
1 star 2 stars 3 stars 4 stars 5 stars
comments

Cocaine Tab

My good buddy Matt tabbed this out and submitted it for me because he is an
amazing guitarist

everyone else who tabbed this did a terrible job and left out the solo so i
took it upon myself to do this right.... the solo isnt perfect but its a start
and you can figure it out urself from what i have so far

Intro/Verses

|----------|
|----------|
|99-7-9---7|
|99-7-9---7|
|77-5-7---5|
|----------|

Chorus

|-------|
|-------|
|9-7-5-4|
|9-7-5-4|
|7-5-3-2|
|-------|

Solo (b=bend, r=release v=vibrato)

|---------------------------------------------|
|---------------------------------------------|
|9-9----9--12b-12-9----9-9-----9-9-12v-12v-9v-|
|----12-------------12-----12-----------------|
|---------------------------------------------|
|---------------------------------------------|

|------------------------------------------------------12----|
|10b-10b-10b-9b-9b-9b-9b-10br-8-------------------12br---12br|
|-------------------------------9--------9-9-----------------|
|---------------------------------12--12-----12v-------------|
|------------------------------------------------------------|
|------------------------------------------------------------|
[ Tab from: http://www.guitartabs.cc/tabs/e/eric_clapton/cocaine_tab_ver_4.html ]
|-----------------------------------------------------------------------|
|9--------------------------12-10-9-------------------------------------|
|-11-9----9-9-----9-----------------11-9-12-9------9---------9---------9|
|------12------12---12-12--------------------12-12--12-12-12---9h12-12--|
|-----------------------------------------------------------------------|
|-----------------------------------------------------------------------|
           It gets hard to follow at this point but do your best
|----------------------------12----12----12---12----------------12-9--|
|-------------10br-8---8-12br--12br--12br--12b--12r-12-10-8---------12|
|---9-9-9------------9-------------------------------------11-9-------|
|12-------12----------------------------------------------------------|
|---------------------------------------------------------------------|
|---------------------------------------------------------------------|
                             from here its tough to interpret so throw in some
similar licks and it will sound fine
|-----------------------------------------------------------------------|
|10-8-------------------------------------------------------------------|
|-----11-9----9-11----9-11----------------------------------------------|
|----------12------12------12-------------------------------------------|
|-----------------------------------------------------------------------|
|-----------------------------------------------------------------------|

Outro

|------------------------------------------------------------|
|--------------------------11b-11b-11-11b-8------------------|
|9br----9----9------------------------------9-9b-9b-9b--9b-9b|
|----12---12---12-12-12-10-----------------------------------|
|------------------------------------------------------------|
|------------------------------------------------------------|
finish using some of these licks
|---------|----------------------|
|---------|----------------------|
|9h11-9h11|--------9----9-9-9----|
|---------|9h12-12---12-------12-|
|---------|----------------------|
|---------|----------------------|
Comments