Eric Clapton - Cocaine Chords & Tabs

 

Cocaine Chords & Tabs

Eric Clapton Chords & Tabs

Version: 3 Type: Bass Tab 1 rating
1 star 2 stars 3 stars 4 stars 5 stars
comments

Cocaine Bass Tab

verse
G|----------------------------|
D|-----------7--6--5----------|
A|--5-5-3-5-----------5-8--5--|	X4
E|----------------------------|

G|-----------7--6--5----------|
D|--5-5-3-5-----------5-8--5--|
A|----------------------------|	X2
E|----------------------------|

G|----------------------------|
D|-----------7--6--5----------|
A|--5-5-3-5-----------5-8--5--|	X2
E|----------------------------|
[ Tab from: http://www.guitartabs.cc/tabs/e/eric_clapton/cocaine_btab_ver_3.html ]
chorus
G|----------------------------|
D|----------------------------|
A|--------------3--3----------|	X3
E|--5--5-5--------------3--3--|

post chorus
G|------------------------------|
D|------------------------------|
A|------------------------------|
E|--5--5--5--5---5-5-5-5-5-5-5--|


This is the order that it is played, just listen to the song to see how many
times through you gotta play it. contact me at dohprice@yahoo.co.uk
Comments