Eric Clapton - Cocaine Chords & Tabs

 

Cocaine Chords & Tabs

Eric Clapton Chords & Tabs

Version: 2 Type: Bass Tab 0 ratings
1 star 2 stars 3 stars 4 stars 5 stars
comments

Cocaine Bass Tab

Cocaine
by Eric Clapton
Tabbed by Elliott

I have a feeling this is right apart from the intro
but if you do find something wrong email: Pratman@btopenworld.com

Standard tuning

Intro

G|-------------------|-------------------|
D|-------------------|-------------------|
A|--7--------5----5--|--7-----7--5-------|
E|--------------7----|-----7-------5530--|
[ Tab from: http://www.guitartabs.cc/tabs/e/eric_clapton/cocaine_btab_ver_2.html ]
G|-------------------|-------------------|
D|-------------------|-------------------|
A|--7-----7--5----5--|--7-----7--5----5--|
E|-----7-------7-----|-----7-------7-----|

Verse

G|-------------------|-------------------|
D|-------------------|-------------------|
A|--7-----7--5----5--|--7-----7--5----5--|
E|-----7-------7-----|-----7-------7-----|

Chorus

G|-------------------|-------------------|
D|-------------------|-------------------|
A|--7-------5--------|--3--------2.------|
E|-------------------|-------------------|

PS. There are probably variations that I 
haven't tabbed so you'll have to improvise.
Comments