Eric Clapton - Blue Eyes Blues Chords & Tabs

 

Blue Eyes Blues Chords & Tabs

Eric Clapton Chords & Tabs

Version: 1 Type: Tab 0 ratings
1 star 2 stars 3 stars 4 stars 5 stars
comments

Blue Eyes Blues Tab

   
Eric Clapton-Blues eyes blues
Tabsmail-cifrastabs@zipmail.com.br
                 Eric Clapton-Blues eyes blues


  Esus4                                          F#m
|--------------------0-----------|----------------2---------------|-------------------------------|
|------------0-------------------|------------0---2---------------|---0-----------0---------------|
|2-------2-----------------------|--------1-------2---------------|-----------2-------------------|
|2---2---------------------------|2---4-----------4---------------|-------------------------------|
|0-------------------------------|--------------------------------|-------------------------------|
|--------------------------------|0---------------2---------------|-------------------------------|
[ Tab from: http://www.guitartabs.cc/tabs/e/eric_clapton/blue_eyes_blues_tab.html ]
                                    A                                             B/A
|----------------0---------------|0-------------------0-----------|----------------2---------------|--------------------------------|
|------------0-------------------|2-----------0-------------------|------------0---2---------------|----------------0---------------|
|--------2-----------------------|2-------2-----------------------|--------1-------2---------------|------------2-------------------|
|0---4---------------------------|2---2---------------------------|2---4-----------2---------------|0-------4-----------------------|
|--------------------------------|0-------------------------------|--------------------------------|--------------------------------|
|--------------------------------|--------------------------------|0---------------2---------------|--------------------------------|

               F#m                                                 Bm                                 Emj          F#m  Bm  F#m
|--------------------------------|2-------------------------------|2-------------------------------|--------------------------------|
|2---0-----------0---------------|0---------------0-------2---4---|2-------------------------------|--------------------------------|
|--------2-----------2-----------|4-----------------------3-------|3-------------------------------|--1-----------------------------|
|------------4---0-------4---2---|4-------------------------------|4-------4---------------1-------|--2-----4-----------------------|
|--------0---2-------------------|2-------------------------------|--------------------------------|--------------------------------|
|--------------------------------|--------------------------------|2-------------------------------|--0-----------------------------|


TabsMail...
http://tabsmail.8m.com

Comments