Eric Clapton - Bell Bottom Blues Chords & Tabs

 

Bell Bottom Blues Chords & Tabs

Eric Clapton Chords & Tabs

Version: 4 Type: Tab 0 ratings
1 star 2 stars 3 stars 4 stars 5 stars
comments

Bell Bottom Blues Tab

   
                Bell Bottom Blues-Derek and the Dominoes

Tabbed By: fridzeppelin
Email: fridzeppelin@yahoo.com
Tuning: standard

|h hammer on
|/ slide up
|\ slide down
|b bend
[ Tab from: http://www.guitartabs.cc/tabs/e/eric_clapton/bell_bottom_blues_tab_ver_4.html ]
e|---------------------------------------------------------------|
B|---------------1-----------------------------------------------|
G|------------------0------------1------------2------------------|
D|-------0---h2--------2------2-----2------2-----2---------2-----|
A|-2--h3-------------------2------------0---------------3-----3--|
E|---------------------------------------------------3-----------|


e|---------------------------|-13-----------------10----|
B|---------------------------|---13-11---------------12-|
G|----------------------4----|----------10b12-----------|
D|-------3------------5---5\-|--------------------------|intro end
A|----3-----3--/5--5---------|--------------------------|
E|-1-------------------------|--------------------------|
Comments