Eric Clapton - Bell Bottom Blues Chords & Tabs

 

Bell Bottom Blues Chords & Tabs

Eric Clapton Chords & Tabs

Version: 1 Type: Tab 0 ratings
1 star 2 stars 3 stars 4 stars 5 stars
comments

Bell Bottom Blues Tab

   
Bell Bottom Blues Lick


Guitar 1, rhythm:
     F              F         G
E------------------------------------------------I
B----1--------------1---------3------------------I
G----2--------------2---------4------------------I
D----3--------------3---------5------------------I
A----3--------------3---------5------------------I
E----1--------------1---------3------------------I
[ Tab from: http://www.guitartabs.cc/tabs/e/eric_clapton/bell_bottom_blues_tab.html ]
Guitar 2, Lead 1:
E--13----------------------10--------------------I
B-----13-------11---------------11vib------------I
G------------------12^full-----------------------I
D------------------------------------------------I
A------------------------------------------------I
E------------------------------------------------I

Guitar 3, Lead 2:
E--13-13-------11--------------------------------I
B--13-13-------11----------13--------------------I
G------------------12^full&release(12)----(12)\--I <- Slide down
D------------------------------------------------I
A------------------------------------------------I
E------------------------------------------------I

Comments