Eric Clapton - Bad Love Chords & Tabs

 

Eric Clapton Chords & Tabs

Version: 1 Type: Tab 0 ratings
1 star 2 stars 3 stars 4 stars 5 stars
comments

Bad Love Tab

   
TABLUTURE FOR BAD LOVE BY ERIC CLAPTON
TRANSCRIBED BY Andrew Wilkie
      If u have any Comments or Suggestions E-mail me at andy.wilkie@lineone.net and visit my site at :- http://www.angelfire.com/ak2/basex/index.html

KEY 

FV = Finger Vibrato
TAV = Tremolo Arm Vibrato
GU = Gliss up (Strike one note, then slide the finger up the fretboard as indicated).
GD = Gliss DWN (Strike one note, then slide the finger down the fretboard as   	indicated).
TS = Tremolo Strumming (fast up+down strumming)
8VA = Indicates that the notes are to be played an octave higher  than written.
LOCA = This instrucuton cancels the above
X = Mute string to produce a percussive effect.
HTB = Half Tone Bend (Play the note then bend the string so that the pictch rises by 	half tone (semi-tone)
FTB = Full Tone Bend (Play the note then bend the string so that the picth rises a full 	tone).
DB = Decorative Bend (Play the note then bend the string 1/4).
PRB = Pre-Bend (Bend the string as indicated,strike the string and release).
BR = Bend & Release (Strike the string, bend as indicated, then release the bend whilst 	it is still sounding).
BRE = Bend & Restrike (Strike the string, bend or gliss as indicated, then restrike the 	string where the symbol occurs). 
UNI = Unison Bend (Strike both strings simutaneously then immediately bend the 	lower string as indicated).
SUB = Staggered Unision Bend (Strike the lower string and bend as indicated, whilst 	it is still sounding strike the higher string).
H = Hammer On (Hammer a finger down on the next note without striking the string 	again).
P = Pull Off (Pull your finger off the string with a plucking motion to sound the next 	note without striking the string again).
RU = Rake Up ( Strum the notes upwards in the manner of an arpeggio).
RD = Rake Down (Strum the notes downwards in the manner of  an arpeggio).
HARM = Harmonics (Strike the string whilst touching it lightly at the fret positon 		shown).
A.H = Artificial Harmonics (Will be described in context).

         Overdrive/Sustain + Waa - Waa
E ---------------------------------------------------------------------------------------------------     
B ----3-----------------------------------------------------------------FV------------------------
G ----2-----------------------------GU----5--------GD------------------------------------------   
D ----0---------------H P---------5-7--------------7-5------------------------------------------- 
A -------------------3-5-3-----------------------------------------------------3-5-3-------------
E  --------------------------------------------------------------------------------------------------

E---------------------------------------------------------------------------------------------------
B---------------------------------------------------------------------------------------------------
G-------------------------------------------------------------GU----5------GD------------------        
D--------3-------5-------3---------------H----P-----------5-7------------7-5------------------
A---------------------------------------3----5----3----------------------------------3---------3-
E---------------------------------------------------------------------------------------------------
[ Tab from: http://www.guitartabs.cc/tabs/e/eric_clapton/bad_love_tab.html ]
E---------------------------------------------------------------------------------------------------
B---------------------------------------------------------------------------------------------------
G------------------------------------------------GU---------5------GD--------------------------     
D------GU GD------------------H--P--------5-7-----------------7-5 ----------H---P---------
A-----5---7---5---------------3---5---3---------------------------------------3----5----3------
E---------------------------------------------------------------------------------------------------
						  (No waa-waa)	
E---------------------------------------------------------------------------------------------------
B---------------------------------------------------------------------------------------------------
G---------------------------------------GU-----5-------7-----P------------3---------------------
D-----3-----5----3----------H-P-----5-7------------------7--5--3--------3--------------10-12
A--------------------------3--5--3------------------------------------------1---------------------
E----------------------------------------------------------------------------------------------------
     %       Dm                                            Am                         G
E------------------------------------------------FV-------------------------------------------------
B----------GU--------13----------GD-------------------------------------------------------------
G--------12-14------------------14-12--------------------H---------10----12-----10-----------
D---------------------------------------------------------10-12-------10----12-----10---10--12
A----------------------------------------------------------------------------------------------------
E-----------------------------------------------------------------------------------------------------
              Dm                                            Am                                 G       
E----------------------------------------------------------------------------GU GD---------------
B----------GU--------13--------GD--------------------------------------8---10---8------------
G--------12-14----------------14-12---------------10---------9---------7----9---7------------- 
D-----------------------------------------------------10---------9-------------------------10--12
A----------------------------------------------------------------------------------------------------
E-----------------------------------------------------------------------------------------------------
            Dm                                               Am                           G
E-----------------------------------------------FV--------------------------------------------------
B----------GU--------13--------GD---------------------------------------------------------------
G-------12-14-----------------14-12-------------------H-------------10---12-------10---------
D------------------------------------------------------10-12-----------10---12-------10---------
A---------------------------------------------------------------------------------------------10-12
E-----------------------------------------------------------------------------------------------------
            Dm                                   Am                   Bb                   Bm7                                E-----------------------------------------------------------------------------------------------------
B---------GU-------13--------15----GD---------------------------------3------------3----------
G------12-14-----------------------14-12---------10---7----------------2------------2----------
D----------------------------------------------------------8----------------4------------4----------
A---------------------------------------------------------------------------2------------2----------
E-----------------------------------------------------------------------------------------------------
                  Bm7/E        E                        A
E---------------------------0------------------------------------------------------------------------
B------------3-------------0------------------------------------------------------------------------
G------------2-------------1------------------2------------2---------------------%---------------
D------------4-------------2------------------2------------2---------------------%--------------
A------------2-------------2------------------0------------0---------------------%--------------
E---------------------------0------------------0------------0--------------------------------------
                  Bm7      		            Bm7/E	      E               A 	      
E---------------------------------------------------------------0----------------------------------
B------------3-----------3------------------3-----------------0----------------------------------
G------------2-----------2------------------2-----------------1------------2---------2----------
D------------4-----------4------------------4----------------2-------------2---------2---------
A------------2-----------2------------------2----------------2-------------0---------0---------
E--------------------------------------------------------------0-------------0---------0---------
                                           Bb         C                 Am                               Dm
E------------------------------------------------------------------------------------1------------
B-------------------------------3---------5--------------1-------------------------3------------
G-----------%-----------------3---------5--------------2-------------------------2------------
D-----------%-----------------3---------5--------------2-------------------------0------------
A-----------%-----------------1---------3--------------0--------------------------------------
E-------------------------------------------------------------------------------------------------
           Gm	     C                         Dm                               Bb               C  
E-----------------------------------------------1------------1-----------------------------------
B-------3------------------5-------------------3------------3-------------3-------------5------
G-------3------------------5-------------------2------------2-------------3-------------5------
D-------5------------------5-------------------0------------0-------------3-------------5------
A-------5------------------3-----------------------------------------------1-------------3------
E--------3----------------------------------------------------------------------------------------
            Am	Dm                        Gm         C              G5
E------------------------1------------------------------------------------------------------------
B---------1-------------2--------------------3---------5----------------------------------------
G---------2-------------3--------------------3---------5----------------------------------------
D---------2-------------0--------------------5---------5-----------5------5------5------5-----
A---------0----------------------------------5---------3-----------5------5------5------5-----
E---------------------------------------------3----------------------3------3------3------3-----

Chorus:
             Dm              C                           G5                       Dm          C           G5     
E---------1---------------------------------------------------------------------------------------
B---------3-------------5------------------------------------------------------------------------
G---------2-------------5------------------------------------------------------------------------
D---------0-------------5---------------------5---------5---------------------------------------
A-----------------------3---------------------5---------5---------------------------------------
E----------------------------------------------3---------3---------------------------------------
    Dm    C    G5            Dm                     C          Bb                    D.% L (+) Coda		      
E---------------------------1--------------------------------------------------------------------
B---------------------------3------------------5--------3---------------------------------------
G---------------------------2------------------5--------3---------------------------------------
D---------------------------0------------------5--------3-----------------10-12---------------
A----------------------------------------------3--------1---------------------------------------
E-------------------------------------------------------------------------------------------------
   (+)Coda      Dm                                Am                             Bb 
E-------------------------------------------------------------------------------------------------
B-------------GU-------13-------15---GD----------------------------------------------------
G-----------12-14---------------------14-12------10---7-------------------------------------
D----------------------------------------------------------8---------------------------H-------
A----------------------------------------------------------8------------------------5-----5----
E-------------------------------------------------------------------------------------------------

Repeat 3X
(synth solo x2)
         C                      G               D                                             C                    G      D
E-------------------------------------------------------2-----------------------------------------
B-------------------------------------------------------3-----------------------------------------
G-------------------------------------------------------2-----------------------------------------
D-------------------------------------------------------0--------H-------------------------------
A------3-----2-----0-------------------------0---------------0---2-----3-----2-----0----------
E-------------------------3-----------2----------------------------------------------------3-----2
                                         C                   G       D
E----------------2------------------------------------------------------2-------------------------
B----------------3------------------------------------------------------3-------------------------
G----------------2------------------------------------------------------2-------------------------
D----------------0----H------------------------------------------------0---------------H-------
A---------0---------0--2-----3-----2-----0-----------------0-----------------------0-----2----
E----------------------------------------------3-------0------------------------------------------

         C                      G               D                                             C                    G      D
E--------------------------------------------------2-----------------------------------------------
B--------------------------------------------------3-----------------------------------------------
G--------------------------------------------------2-----------------------------------------------
D--------------------------------------------------0--------------H-------------------10-12-----
A------3-----2-----0-------------------------------------------0--2------------------------------
E-------------------------3-----------2-------------------------------------------------------------

    	Dm                                               Am                           G
E-----------------------------------------------FV--------------------------------------------------
B----------GU--------13--------GD---------------------------------------------------------------
G-------12-14-----------------14-12-------------------H-------------10---12-------10---------
D------------------------------------------------------10-12-----------10---12-------10---------
A---------------------------------------------------------------------------------------------10-12
E-----------------------------------------------------------------------------------------------------

             Dm                                            Am                                 G       
E----------------------------------------------------------------------------GU GD---------------
B----------GU--------13--------GD--------------------------------------8---10---8------------
G--------12-14----------------14-12---------------10---------9---------7----9---7------------- 
D-----------------------------------------------------10---------9-------------------------10--12
A----------------------------------------------------------------------------------------------------
E-----------------------------------------------------------------------------------------------------

   	Dm                                               Am                           G
E-----------------------------------------------FV--------------------------------------------------
B---------GU--------13--------GD---------------------------------------------------------------
G-------12-14-----------------14-12-------------------H-------------10---12-------10---------
D------------------------------------------------------10-12-----------10---12-------10---------
A---------------------------------------------------------------------------------------------10-12
E-----------------------------------------------------------------------------------------------------

E----------------------------------------------------------------------------------------------------
B--------GU--------13--------15-----GD-------------------------------FV----------------------
G------12-14-------------------------14-12------------10----------------------------------------
D------------------------------------------------------------------12--------------10--------12---
A----------------------------------------------------------------------------------------------------
E-----------------------------------------------------------------------------------------------------

Comments