Eric Clapton - Anyday Chords & Tabs

 

Eric Clapton Chords & Tabs

Version: 1 Type: Tab 0 ratings
1 star 2 stars 3 stars 4 stars 5 stars
comments

Anyday Tab

   
ANYDAY- Derek and the Dominos

For standard tuning (original in openA)

INTRO RIFF
------------------------------|
-----------2---2-2----/14-----|
-----------2---2-2----/14-----|
--0-2-4-0--2--2-2----/14-----|
-----------0---0-0------------|
------------------------------|

SLIDE LICK
-----------------------------|
-----------------------------|
-----14---14---14------------|
--/14--/14--/14-------------|
-----------------------------|
-----------------------------|

 A                 A/G             D(/F#)       F  G  F
Heard you talking and I thought I heard you say
 A       A/G         D        F G F
Yeah, "Please leave me alone
A                 A/G             D(/F#)    F G F
Nothing in this world can make me stay
A    A/G         D/F#   F      G  F    (chorus lick)
I'd rather go back, I'd rather go back home"
[ Tab from: http://www.guitartabs.cc/tabs/e/eric_clapton/anyday_tab.html ]
CHORUS:
    D  C  A    A(XII)
-----------------------------------------------17-17----|
---/15-13/14-------------------/15-13/14----/17--17------|
------------14------14-14--------------14---------------|
-----------------/14--14--------------------------------|
---------------------------------------------------------|
---------------------------------------------------------|
               But if you believe in me
                   Like I believe in you
            We could have a love so true
              We would go on endlessly

        D      G       D    G              D         G    D   G
(And I) know anyday, anyday, I will see you smile
D    G         D        G           D         G    D    G
Any way, any way, (if) only for a little while

INTRO RIFF

Well someday baby, I know you're gonna need me
When this whole world has got you down
I'll be right here, so woman call me
And I'll never ever let you down ...CHORUS

Break the glass and twist the knife into yourself
You've got to be a fool to understand
To bring your woman back home
After she's left you for another
You've got to be a, you've got to be a man ...CHORUS
Comments