Eric Church - Hell On The Heart Chords & Tabs

 

Hell On The Heart Chords & Tabs

Eric Church Chords & Tabs

Version: 1 Type: Bass Tab 0 ratings
1 star 2 stars 3 stars 4 stars 5 stars
comments

Hell On The Heart Bass Tab

   
G|-----------------------------------------------------------------------------|
D|-------3-----3---5-----3-----3---------3-----3---5---------------------------|
A|-3-3-3---------------------------3-------------------------------3-----------|
D|-----------------------------------------------------------------------------|

Rest

0:24
G|------------------------------------------------------------------------------|
D|------------------------------------------------------------------------------|
A|-3/5/8-8-8-8-8-8-8/14-15-15-15-15-15-15-15\10\8-8-8-8-8-8-8\5\3-3-3-3-3-3-3/5/|
D|------------------------------------------------------------------------------|

0:33
G|-----------------------------------------------------------------|
D|-----------------------------------------------------------------|
A|/8-8-8---8-8-8-\-3-3-3---3-3-3-r-5-5-5---5-5-5-------------------|
D|-------------------------------------------------5-5-5-5-5-5-5-5-|

0:41
G|------------------------------------------------------------------------|
D|------------------------------------------------------------------------|
A|------------------------------------------------------------------------|
D|-3-3-3---3-3-3/9/10-10-10-10-10-10-10\5\3-3-3---3-3-3/5/7-7-7-7-7-7-7\5\|

0:48
G|-----------------------------------------------------------------------------------|
D|--------------------------------------------15-15-15-15-15-17-17-17-15-15-15-15-15-|
A|-----------------------------------15-15-15----------------------------------------|
D|\3-3-3---3-3-3-3-5-5-5-5-5-5/15/17-------------------------------------------------|

G|-------------------------------|
D|-------3-3-3-3-3-5-5-5-3-5---\-|
A|-3-3-3-------------------------|
D|-------------------------------|

1:00
G|-----------------------------------------------------------------|
D|-----------------------------------------------------------------|
A|-3-3-3-3-3-3-3-7-8-8-8-8-8-8-8-8-8-8-8-8-8-8-8-5-3-3-3-3-3-3---0-|
D|-------------------------------------------------------------5---|

G|-----------------------------------------------------------------|
D|-----------------------------------------------------------------|
A|-3-3-3-3-3-3-3-7-8-8-8-8-8-8-8-8-8-8-8-8-8-8-8-5-3-3-3-3-3-3-3-5-|
D|-----------------------------------------------------------------|

1:15
G|-----------------------------------------------------------------|
D|-----------------------------------------------------------------|
A|-8-8-8-8-8-8-8-5-3-3-3-3-3-3-3-7-8-8-8-8-8-8-8-5-3-3-3-3-3-3-3-5-|
D|-----------------------------------------------------------------|
[ Tab from: http://www.guitartabs.cc/tabs/e/eric_church/hell_on_the_heart_btab.html ]
1:23
G|-----------------------------------------------------------------|
D|-----------------------------------------------------------------|
A|-8-8-8---8-8-8---3-3-3---3-3-3---5-5-5---5-5-5-------------------|
D|-------------------------------------------------5-5-5-5-5-5-5-5-|

1:31
G|-----------------------------------------------------------------|
D|-----------------------------------------------------------------|
A|---------------2-3-3-3-3-3-3-3-3---------------------------------|
D|-3-3-3---3-3-3-------------------3-3-3---3-3-3-5-7-7-7-7-7-7-7-5-|

1:39
G|--------------------------------------------------------------------|
D|--------------------------------------------------------------------|
A|-------------------------------0-3-3-3-8-8-8-8-8-10-10-10-8-8-8-8-8-|
D|-3-3-3---3-3-3-3-5-5-5-5-5-5-5--------------------------------------|

1:47
G|---------------------------------------------------------------------------------------|
D|---------------------------------------------------------------------------------------|
A|-12-12-12-12-12-12-12---10-10-10---10-10-10-10-8-8-8-8-8-8-8-7/15-15-15-14-14-14-12-12-|
D|---------------------------------------------------------------------------------------|

1:54
G|-----------------------------------------------------------------|
D|-----------------------------------------------------------------|
A|-0-0-0-0-0-0-0-0-------------------------------------------------|
D|-----------------5-5-5---5-5-0-2-3-3-3---3-3-3-3-----------------|

2:02
G|-----------------------------------------------------------------|
D|-----------------------------------------------------------------|
A|-8-8-8-8-8-8-8-5-3-3-3-3-3-3-3-7-8-8-8-8-8-8-8-5-3-3-3-3-3-3-3-5-|
D|-----------------------------------------------------------------|

2:10
G|-------------------------------------------------------------------------|
D|-------------------------------------------------------------------------|
A|-8-8-8---8-8-8---3-3-3---3-3-3---5-5-5---5-5-5-/-10-10-10-10-10-10-10-10-|
D|-------------------------------------------------------------------------|

G|-----------------------------------------------------------------|
D|-----------------------------------------------------------------|
A|---------------2-3-3-3-3-3-3-3-----------------------------------|
D|-3-3-3---3-3-3-----------------5-3-3-3---3-3-3-5-7-7-7-5-7-7-7-5-|

2:26
G|--------------------------------------------------------------------|
D|--------------------------------------------------------------------|
A|-------------------------------0-3-3-3-8-8-8-8-8-10-10-10-8-8-8-8-8-|
D|-3-3-3---3-3-3---5-5-5---5-5-5--------------------------------------|

G|----------------------------------|
D|----------------------------------|
A|-3-3-3-8-8-8-8-8-10-8-10-3--------|
D|----------------------------------|
Tabbed by Dave Vucko
Comments