Eric B And Rakim - Microphone Fiend Chords & Tabs

 

Microphone Fiend Chords & Tabs

Eric B And Rakim Chords & Tabs

Version: 1 Type: Bass Tab 0 ratings
1 star 2 stars 3 stars 4 stars 5 stars
comments

Microphone Fiend Bass Tab

-----------------------------------|
--10----12^10----10----------(10)--|
-----12-------12----10-11-12-------|
-----------------------------------|

-----------------------------------|
--10----12^10----10----------(10)--|
-----12-------12----10-11-12-------|
-----------------------------------|
[ Tab from: http://www.guitartabs.cc/tabs/e/eric_b_and_rakim/microphone_fiend_btab.html ]
-----------------------------------|
--10----12^10----10----------(10)--|
-----12-------12----10-11-12-------|
-----------------------------------|

-----------------------------------|
--10----12^10----10----------(10)--|
-----12-------12----10-11-12-------|
-----------------------------------|
[ Tab from: http://www.guitartabs.cc/tabs/e/eric_b_and_rakim/microphone_fiend_btab.html ]repeat for entire song standard tuning
^ is a flick off

i had to type it again cus i couldnt submit it
Comments