Eraserheads - Trip To Jerusalem Chords & Tabs

 

Trip To Jerusalem Chords & Tabs

Eraserheads Chords & Tabs

Version: 1 Type: Tab 0 ratings
1 star 2 stars 3 stars 4 stars 5 stars
comments

Trip To Jerusalem Tab

   
Song: Trip To Jerusalem
Artist: Eraserheads
Album: Fruitcake
Submitted by: bogey

Intro:

E|-----------------------------|
B|-----------------------------|
G|-----7-7-7-7-----------------|
D|-----7-7-7-7-----------------|
A|-----5-5-5-5-----------------|
E|-----------------------------|

Verse:

E|----------0-------0---------0---------0------0--------0-----0h2----|
B|-------3-------3----3-----3---------3-----3----3----3----3------3--|
G|----2-------2-----------2--------2-----2----------2----------------|
D|-------------------------------------------------------------------| 
A|-------------------------------------------------------------------| 
E|-------------------------------------------------------------------|
   
E|----------0-------0---------0----------0-------0---------0-----------|
B|-------3-------3----3-----3----------3------3-----3----3-------------|
G|----2-------2-----------2----------2------2----------2---------------|
D|---------------------------------------------------------------------|
A|---------------------------------------------------------------------|
E|---------------------------------------------------------------------|
        Open your door,            Dance on the floor...

Refrain:

E|-----------------------------------------------------------------|
B|---3--0---2---2-2-20---0-0-302---2-2-2-0-0-0-302---2-2-2-|
G|-----------------------------------------------------------------|
D|-----------------------------------------------------------------|
A|-----------------------------------------------------------------|
E|-----------------------------------------------------------------|
   It never ends,           it never ends,         it never ends...

Chorus:
                      D                         A
E|------------------------------------------------------------------|
B|------------------------------------------------------------------|
G|--------------------7-------------------------4-------------------|
D|--------------------7-------------------------7-------------------|
A|--------------------5-------------------------7-------------------|
E|----------------------------------------------5-------------------|
  Oh tell me do you want to fly, fly high way up in the sky

                        G                     D         A
E|------------------------------------------------------------------|
B|------------------------------------------------------------------|
G|--------------------------------------------7---------------------|
D|----------------------5---------------------7---------7-----------|
A|----------------------5---------------------5---------7-----------|
E|----------------------3-------------------------------5-----------|
   Or maybe you don't even have to try; all you have to do is follow    the star 
[ Tab from: http://www.guitartabs.cc/tabs/e/eraserheads/trip_to_jerusalem_tab.html ]
                      D                         A
E|------------------------------------------------------------------|
B|------------------------------------------------------------------|
G|--------------------7-------------------------4-------------------|
D|--------------------7-------------------------7-------------------|
A|--------------------5-------------------------7-------------------|
E|----------------------------------------------5-------------------|
   But when the star doesn't shine, you won't be able to find your way

                        G                     D         A
E|------------------------------------------------------------------|
B|------------------------------------------------------------------|
G|--------------------------------------------7---------------------|
D|----------------------5---------------------7---------------------|
A|----------------------5---------------------5---------------------|
E|----------------------3-------------------------------------------|
   And the wise man will still remain the king of trip to Jerusalem

Verse 2:

E|----------0-------0---------0---------0-------0--------0-----0h2----|
B|-------3-------3----3-----3---------3------3----3----3----3------3--|
G|----2-------2-----------2--------2------2----------2----------------|
D|--------------------------------------------------------------------| 4x
A|--------------------------------------------------------------------| 
E|--------------------------------------------------------------------|

E|----------0-------0---------0----------0-------0---------0-----------|
B|-------3-------3----3-----3----------3------3-----3----3-------------|
G|----2-------2-----------2----------2------2----------2---------------|
D|---------------------------------------------------------------------|
A|---------------------------------------------------------------------|
E|---------------------------------------------------------------------|
   Sometimes you win, sometimes you fail...

Repeat Refrain and chorus

Bridge:

 Bm                        F#m
The music plays like a heavenly choir
  G                  A                  D
Lovely chairs are there if you get tired
 Bm                        F#m
Don't listen to a word he says
  G                         
He's just trying to distract you
 A                      Bm                   D-Em7-D-Em7-D-Em7
Do your own thing and stick with what you want

E|----------0-------0---------0----------0-------0---------0-----------|
B|-------3-------3----3-----3----------3------3-----3----3-------------|
G|----2-------2-----------2----------2------2----------2---------------|
D|---------------------------------------------------------------------|
A|---------------------------------------------------------------------|
E|---------------------------------------------------------------------|
   Open your drawer, dance on the floor...

E|----------0-------0---------0---------0-------0--------0-----0h2----|
B|-------3-------3----3-----3---------3------3----3----3----3------3--|
G|----2-------2-----------2--------2------2----------2----------------|
D|--------------------------------------------------------------------| 
A|--------------------------------------------------------------------| 
E|--------------------------------------------------------------------|
    Only one chair, who will sit there...

Repeat refrain & chorus

Outro:
  D              G
On a trip to Jerusalem (4x)




That's it! Paki-rate na lang...
Comments